>
 >
Am I Demon? 1

Am I Demon? 1 Guitar Tabs

Danzig - Am I Demon? 1 chords, tabs, tablatures, lyrics

Guitar lessons | Add/correct | Request | Top 50 tabs Artists:  A B C D E F G H I J K L M N O P Q R S T U V W X Y Z 0-9

Am I Demon? 1 Guitar Tabs – Danzig

CD, Sheet music, Poster

Do you like Am I Demon? 1? Share with your friends now
Bass TabsBass Tabs v2TabsTabs v2
Danzig  Am I Demon


Tablature Legend:
/     - Slide up
\     - Slide down
PM|-| - Palm mute
h     - hammer-on
p     - pull-off
d     - dive-bomb
ft    - finger-tap
?(?)  - bend (to what is in the brackets)
~     - vibrato
*     - Brief Note (just for those who are a bit stupid!lol)

Intro:
                                                   (x8)
e|-------------------------|--------------------------|
B|-------------------------|--------------------------|
G|-------------------------|--------------------------|
D|-7/9---------7/9---------|-7/9---------------12-\-7-|
A|-5/7---------5/7---------|-5/7---------------10-\-5-|
E|-----0-0-0-0-----0-0-0-0-|-----0-0-0-0-0-0-0--------|
PM    |-------|   |-------|     |-------------|

e|-----------------------|----------------15--d---|  
B|-----------------------|------------------------|  
G|-----------------------|------------------------|  
D|-5---------------------|------------------------|   
A|-3---------------------|-7----------------------|   
E|-----------------------|-5----------------------|
                                                   (x2)
e|-------------------------|--------------------------|
B|-------------------------|--------------------------|
G|-------------------------|--------------------------|
D|-7/9---------7/9---------|-7/9---------------12-\-7-|
A|-5/7---------5/7---------|-5/7---------------10-\-5-|
E|-----0-0-0-0-----0-0-0-0-|-----0-0-0-0-0-0-0--------|
PM    |-------|   |-------|     |-------------|

Verse I:
                                                   (x8)
e|-------------------------|--------------------------|
B|-------------------------|--------------------------|
G|-------------------------|--------------------------|
D|-7/9---------7/9---------|-7/9---------------12-\-7-|
A|-5/7---------5/7---------|-5/7---------------10-\-5-|
E|-----0-0-0-0-----0-0-0-0-|-----0-0-0-0-0-0-0--------|
PM    |-------|   |-------|     |-------------|

Chorus I:

e|-----------------------|------------------------|  
B|-----------------------|------------------------|  
G|-----------------------|------------------------|  
D|-5---------------------|------------------------|   
A|-3---------------------|-7----------------------|   
E|-----------------------|-5----------------------|

End of Chorus I:
                                                   (x2)
e|-------------------------|--------------------------|
B|-------------------------|--------------------------|
G|-------------------------|--------------------------|
D|-7/9---------7/9---------|-7/9---------------12-\-7-|
A|-5/7---------5/7---------|-5/7---------------10-\-5-|
E|-----0-0-0-0-----0-0-0-0-|-----0-0-0-0-0-0-0--------|
PM    |-------|   |-------|     |-------------|

Verse II: (same as Verse I)

Chorus II: (same as Chorus I)

End of Chorus II:

e|-------------------------|--------------------|
B|-------------------------|--------------------|
G|-------------------------|--------------------|
D|-------------------------|--------------------|
A|-------------7/9---------|-7/9---------12--7--|
E|-7-7-7-7-7-7-5/7-7-7-7-7-|-5/7-7-7-7-7-10--5--|
PM|---------|     |-------|     |-------|

                                             (x3)   
e|-------------------------|--------------------|
B|-------------------------|--------------------|
G|-------------------------|--------------------|
D|-------------------------|--------------------|
A|-7/9---------7/9---------|-7/9---------12--7--|
E|-5/7-7-7-7-7-5/7-7-7-7-7-|-5/7-7-7-7-7-10--5--|
PM    |-------|   |-------|     |-------|

Solo Rhythm I: (same as Verse I)

Solo I:

e|-------------------------------------------------15-----------|
B|--------------------------------17(19)~---17(19)----17(19)~~--|
G|-13(15)(14)(15)~--13(15)(13)p11-------------------------------|
D|--------------------------------------------------------------|
A|--------------------------------------------------------------|
E|--------------------------------------------------------------|

e|------------------------------------|-15-----------------------------------|
B|-17-15-14-12-------------15-15(17)~-|-15--15-14-12-------------------------|
G|-------------15-14-12-14------------|--------------14-13-12----------------|
D|------------------------------------|-----------------------14-13-12----12-|
A|------------------------------------|--------------------------------14----|
E|------------------------------------|--------------------------------------|

e|----------------------------|-------------------------------12-14-12-15-14-12-|
B|----------------------------|----------------------12-14-14-------------------|
G|-14(16)-14(16)-14p12----12~-|-------------12-14-14----------------------------|
D|---------------------14-----|----12-14-14-------------------------------------|
A|----------------------------|-14----------------------------------------------|
E|----------------------------|-------------------------------------------------|

e|-17(19)~-|-17(19)-(19)(19)(19)(19)(19)-17p15----15-----------------|
B|---------|-----------------------------------17----17(19)(18)(19)~-|
G|---------|---------------------------------------------------------|
D|---------|---------------------------------------------------------|
A|---------|---------------------------------------------------------|
E|---------|---------------------------------------------------------|

e|-17(17)------------------17(17)-------------------------------------------------|
B|-17(19)-(19)(19)(19)(19)-17(19)-(19)(19)(19)(19)17p15p12h15-17(19)(17)p15-17~--|
G|--------------------------------------------------------------------------------|
D|--------------------------------------------------------------------------------|
A|--------------------------------------------------------------------------------|
E|--------------------------------------------------------------------------------|

e|-----19----------------|-16----------------|-14---------------|----------------|
B|-/17----17-15----------|----15-13----------|----13-11---------|----15-15(17)~--|
G|--------------17-15-13-|----------15-13-11-|----------13-11-9-|-16-------------|
D|-----------------------|-------------------|------------------|----------------|
A|-----------------------|-------------------|------------------|----------------|
E|-----------------------|-------------------|------------------|----------------|

e|------------------------------------------------------------------------------|
B|-15(17)-15p14p12--------------------------------------------------------------|
G|-----------------14p13p12----------14p13p12-12p11p9---------------------------|
D|--------------------------14p13p12------------------12p11p9---------10~~~~~~~-|
A|------------------------------------------------------------12p11p9-----------|
E|------------------------------------------------------------------------------|End Solo

Chorus III: (Same as Chorus I)

End of Chorus III: (Same as End of Chorus II with the End of Chorus I afterwards)

Verse III: (Same as Verse I)

Chorus IV: (Same as Chorus I)

End of Chorus IV: (Same as End of Chorus II)

Solo Rhythm II: (Same as Solo Rhythm I)

Solo II:

e|------------------------------------15\-|-----------------------------12-|
B|-15(17)~~-15(17)~~-15(17)(17)p12--------|-14(15)-------------------------|
G|---------------------------------15-----|-14(15)-14-14-14-14p12----12----|
D|----------------------------------------|-----------------------14-------|
A|----------------------------------------|--------------------------------|
E|----------------------------------------|--------------------------------|
                                       (x?)*
e|----------------------------||----------||------------------|
B|-14(15)---------------------||----------||----12-15-15(17)~-|
G|-14(15)-14-14p12----12---9--||-12ft10p9-||-12---------------|
D|-----------------14---------||----------||------------------|
A|----------------------------||----------||------------------|
E|----------------------------||----------||------------------|
*listen to the track for how many times you tap this but it should be around 16 times!

e|--------12-15-14-12-15-14-12-15-14-12-15-14-12-----------------|
B|-15(17)----------------------------------------15-14-12--------|
G|--------------------------------------------------------14-12~-|
D|---------------------------------------------------------------|
A|---------------------------------------------------------------|
E|---------------------------------------------------------------|

e|--------------------------------------------------------------17(19)~~-|
B|-14(15)(14)-14(15)(14)-14(15)(14)-14(15)(14)-14(15)(14)----------------|
G|-14(15)(14)-14(15)(14)-14(15)(14)-14(15)(14)-14(15)(14)p12-------------|
D|-----------------------------------------------------------14----------|
A|-----------------------------------------------------------------------|
E|-----------------------------------------------------------------------|

e|--------------------------------------------|--------19----------|----16--------------|
B|-15(17)15p14p12----------15(17)-12-15(17)~-|-/17-17----17p15----|-15----15p13--------|
G|-----------------14p13p12-------------------|-----------------15~|-------------15-13~-|
D|--------------------------------------------|--------------------|--------------------|
A|--------------------------------------------|--------------------|--------------------|
E|--------------------------------------------|--------------------|--------------------|

e|-------12------------------------------------------------------------------|
B|15(17)----15p12----12------------------------------------------------------|
G|----------------14----14p13p12----12---------------------------------------|
D|-------------------------------14----14p13p12-12p11p9---------9-10~~~~~~~~-|
A|------------------------------------------------------12p11p9--------------|
E|---------------------------------------------------------------------------|

Chorus V: (same as Chorus I)

Outro:

e|-------------------------|--------------------------------------------|
B|-------------------------|--------------------------------------------|
G|-------------------------|--------------------------------------------|
D|-------------------------|--------------------------------------------|
A|-------------7/9---------|-7/9---------12------7-------9--------------|
E|-7-7-7-7-7-7-5/7-7-7-7-7-|-5/7-7-7-7-7-10------5-------7--------------|
PM|---------|     |-------|     |-------|                *
*keep strumming!

Enjoy!





Comments


Popular Danzig tabs & chords
Bodies Bass Tabs
When Death Had No Name 1 Bass Tabs
Angel Blake Tabs
Belly Of The Beast Tabs
Circle Of Snakes Tabs
How The Gods Kill Tabs
It's Coming Down Tabs
Mother 1 Tabs
Soul On Fire Tabs
When The Dying Calls Tabs


Song lyrics



↑ Back to top | Tablatures and chords are parodies/interpretations of the original songs. You may use it for private study, scholarship, research or language learning purposes only
© 2014 AZChords.com Contact us | Privacy policy | DMCA | Add/correct tabs | Request tabs | Top 50 tabs