» » »

Sally's Song Tabs (ver.3)

Artists:  A B C D E F G H I J K L M N O P Q R S T U V W X Y Z # 

Sally's Song Tabs (ver.3)

Danny Elfman
Rating:
0/5 (0 votes)

Hard to play? Try these video lessons and learn fast.
                E-----------------------------------------------------------------------|
B-----------------------------------------------------------------------|
G-----------------------------------------------------------------------|
D-----------------------5------------5-------------------------5--------|
A----5-7-------5-7-8-8-8----5-5-7-8-8-----5-5-7-8-8----5-5-7-8-8--------|
E-5-8---5-8-5-6----------7-8---------7-8-----------7-5----------7-8-----|

E---------------------------------------------------------------------|
B---------------------------------------------------------------------|
G---------------------------------------------------------------------|
D---------------------------------------------------------5-----------|
A-5-7-8-8-7----5-5-8-5---------------------------5-5-7-8-8------------|
E-----------7-8---8---6-5-5-4-5-7-8-5-5-4-5-7-8-5----------7-8--------|

E---------------------------------------------------------------------|
B---------------------------------------------------------------------|
G---------------------------------------------------------------------|
D----------------------5------------------------5---------------------|
A-5-5-7-8-8---5-5-7-8-8----5-5-7-8-8---5-5-7-8-8----5-7-8-8-7---5-5-8-|
E----------7-5----------7-8---------7-5----------7-8---------7-8---8--|

E---------------------------------------------------------------------|
B---------------------------------------------------------------------|
G---------------------------------------------------------------------|
D---------------------------------------------------------------------|
A-5-------------------------------------------------------------------|
E--6-5-5-4-5-7-8-5-5-4-5-7-5------------------------------------------|

My first tab ever, i worked quite some time on it tho to make sure it sounded
the only thing i'd say might be wrong is that it might need to be played 2 strings up 
2 frets
but the rythm and the pattern is right. It sounds right either way, I even have played 
perfectly with the movie. Hope you enjoy.
            
Hard to play? Try these video lessons and learn fast. | Correct




comments powered by Disqus
↑ Back to top | Tablatures and chords are parodies/interpretations of the original songs. You may use it for private study, scholarship, research or language learning purposes only