» » »

Want You Bass tabs (ver.1)

Artists:  A B C D E F G H I J K L M N O P Q R S T U V W X Y Z # 

Want You Bass tabs (ver.1)

Danko Jones
Rating:
0/5 (0 votes)

Hard to play? Try these video lessons and learn fast.
                Danko Jones

Verse/pre-chorus/solo
G:|-----------------|
D:|-----------------|
A:|----22-00-2-0----|
E:|-02--------------|

Chorus
G:|---------------------------------|
D:|---4-4-4-4-4-4-4-2-2-2-2-2-2-2-2-|
A:|---------------------------------|
E:|-2-------------------------------|

G:|---------------------------------|
D:|---------------------------------|
A:|-2-2-2-2-2-2-2-2-5-5-5-5-5-5-5-5-|
E:|---------------------------------|

Verse Variation
G:|---------------|
D:|---------------|
A:|----22-00------|
E:|-02------------|
            
Hard to play? Try these video lessons and learn fast. | Correct




comments powered by Disqus
↑ Back to top | Tablatures and chords are parodies/interpretations of the original songs. You may use it for private study, scholarship, research or language learning purposes only