» » »

Danko Jones, She's Drugs Tabs (ver.1)

Artists:  A B C D E F G H I J K L M N O P Q R S T U V W X Y Z # 

She's Drugs Tabs (ver.1)

Danko Jones Tabs
 Rating:
4/5 (4 votes)
She's Drugs lessons Tabs too difficult? Try these video lessons and learn fast
                
Tuning: normal

e|---------------------------------------------------------------------------|
B|---------------------------------------------------------------------------|
G|---------------------------------------------------------------------------|
D|------8------10------------------------------------------------------------|
A|------6---8---8---8--------------------------------------------------------|
E|----------6-------6--------------------------------------------------------|

e|---------------------------------------------------------------------------|
B|---------------------------------------------------------------------------|
G|---------------------------------------------------------------------------|
D|---10-10-10-10-10-10-10-10-10--8-8-8-8-10-10-8-/-10-8----------------------|
A|---10-10-10-10-10-10-10-10-10--6-6-6-6-8--8--6-/-8--6----------------------|
E|---8--8--8--8--8--8--8--8--8-----------------------------------------------|

distraction number one...
e|---------------------------------------------------------------------------|
B|---------------------------------------------------------------------------|
G|---------------------------------------------------------------------------|
D|---------------------8-8-8-8-8-8-------------------------------------------|
A|--10-10-10-10-10-10--6-6-6-6-6-6--8-8-8-8-8-8--10-10-10-10-10-10-----------|
E|--8--8--8--8--8--8----------------6-6-6-6-6-6--8--8--8--8--8--8------------|

she's a situation, she's a medication...
e|---------------------------------------------------------------------------|
B|---------------------------------------------------------------------------|
G|---------------------------------------------------------------------------|
D|---8------------8----------------------------------------------------------|
A|---6-8-5------8-6-8--------------------------------------------------------|
E|-----6-3------6---6--------------------------------------------------------|

she's drugs...
e|---------------------------------------------------------------------------|
B|---------------------------------------------------------------------------|
G|---------------------------------------------------------------------------|
D|---10-10-10-10-10-10-10-10-10--8-8-8-8-10-10-8-/-10-8----------------------|
A|---10-10-10-10-10-10-10-10-10--6-6-6-6-8--8--6-/-8--6----------------------|
E|---8--8--8--8--8--8--8--8--8-----------------------------------------------|

before bridge and after chorus
e|---------------------------------------------------------------------------|
B|---------------------------------------------------------------------------|
G|--(chorus-ending)-----(then)----------------------(bass-part)--------------|
D|---10-10-10-10-10-------9---8---7---6---5----------------------------------|
A|---8--8--8--8--8--------7---6---5---4---3----------------------------------|
E|---------------------------------------------------------------------------|
bridge (after bass-guitar part)
e|---------------------------------------------------------------------------|
B|---------------------------------------------------------------------------|
G|---------------------------------------------------------------------------|
D|-----------------8-8-8-8-8-------------------------------------------------|
A|---10--8--10--8--6-6-6-6-6--8----------------------------------------------|
E|---8---6--8---6-------------6----------------------------------------------|

chorus again...

that's all, now Rock Sh*t Hot!

| /  slide up
            
Submit corrections

comments powered by Disqus
↑ Back to top | Danko Jones Tabs for She's Drugs. Lyrics for acoustic guitar and electric guitar. Tablatures and chords are parodies/interpretations of the original songs. You may use it for private study, scholarship, research or language learning purposes only