>
 >
Magic Snake

Magic Snake Guitar Tabs

Danko Jones - Magic Snake chords, tabs, tablatures, lyrics

Guitar lessons | Add/correct | Request | Top 50 tabs Artists:  A B C D E F G H I J K L M N O P Q R S T U V W X Y Z 0-9

Magic Snake Guitar Tabs – Danko Jones

CD, Sheet music, Poster

Do you like Magic Snake? Share with your friends now
Tabs
Danko Jones - Magic Snake

Instrument: Guitar
Tuning: eBGDAE



Intro

e||-------------------------------|
B||-------------------------------|
G||-------------------------------|
D||-------------------------------|
A||-3-----3-----3-----3-----3-----|
E||---4-5---4-5---4-5---4-5---4-5-| x3

e||---------------|
B||---------------|
G||---------------|
D||---------------|
A||-3-----3-----3-|
E||---4-5---4-5---|


Verse

e||------------------------------------|------------------------------------|
B||------------------------------------|------------------------------------|
G||------------------------------------|-5----------------------------------|
D||-7--7-------------------------------|-5--7-------------------------------|
A||-7--7-------3-----3-----3-----3-----|-3--7-------3-----3-----3-----3-----|
E||-5--5-(14x)---4-5---4-5---4-5---4-5-|----5-(14x)---4-5---4-5---4-5---4-5-|
pm     *                                    *

e||------------------------------------|------------------------------------|
B||------------------------------------|------------------------------------|
G||------------------------------------|-5----------------------------------|
D||-5--5-------------------------------|-5--7-------------------------------|
A||-5--5-------------------------------|-3--7-------3-----3-----3-----3-----|
E||-3--3-(14x)-3-4-5-3-4-5-3-4-5-3-4-5-|----5-(14x)---4-5---4-5---4-5---4-5-|
pm     *


Chorus

e||-----------------------|--------------------|
B||-----------------------|--------------------|
G||-10-----7----7--5--2---|-10-----7-----------|
D||-10-10--7----7--5--2---|-10-10--7----5------|
A||-8--10--5----5--3--0---|-8--10--5----5------|
E||----8------------------|----8--------3-(9x)-|
pm                                      *


e||--------------------------------|
B||--------------------------------|
G||--------------------------------|
D||-------------------5-6-7--------|
A||-3-----3-----5-6-7-------5-6-7--|
E||---4-5---4-5--------------------| x2


Verse

e||------------------------------------|------------------------------------|
B||------------------------------------|------------------------------------|
G||-5----------------------------------|------------------------------------|
D||-5--7-------------------------------|-7--7-------------------------------|
A||-3--7-------3-----3-----3-----3-----|-7--7-------3-----3-----3-----3-----|
E||----5-(14x)---4-5---4-5---4-5---4-5-|-5--5-(14x)---4-5---4-5---4-5---4-5-|
pm     *                                    *

e||------------------------------------|------------------------------------|
B||------------------------------------|------------------------------------|
G||------------------------------------|------------------------------------|
D||-7--7-------------------------------|-7--7-------------------------------|
A||-7--7-------3-----3-----3-----3-----|-7--7-------3-----3-----3-----3-----|
E||-5--5-(14x)---4-5---4-5---4-5---4-5-|-5--5-(14x)---4-5---4-5---4-5---4-5-|
pm     *                                    *

e||------------------------------------|------------------------------------|
B||------------------------------------|------------------------------------|
G||------------------------------------|-5----------------------------------|
D||-5--5-------------------------------|-5--7-------------------------------|
A||-5--5-------------------------------|-3--7-------3-----3-----3-----3-----|
E||-3--3-(14x)-3-4-5-3-4-5-3-4-5-3-4-5-|----5-(14x)---4-5---4-5---4-5---4-5-|
pm     *


Chorus

e||-----------------------|---------------------|
B||-----------------------|---------------------|
G||-10-----7----7--5--2---|-10-----7------------|
D||-10-10--7----7--5--2---|-10-10--7----5-------|
A||-8--10--5----5--3--0---|-8--10--5----5-------|
E||----8------------------|----8--------3-(16x)-|
pm                                      *

e||-----------------------|--------------------|
B||-----------------------|--------------------|
G||-10-----7----7--5--2---|-10-----7-----------|
D||-10-10--7----7--5--2---|-10-10--7----5------|
A||-8--10--5----5--3--0---|-8--10--5----5------|
E||----8------------------|----8--------3-(9x)-|
pm                                      *

e||--------------------------------|
B||--------------------------------|
G||--------------------------------|
D||-------------------5-6-7--------|
A||-3-----3-----5-6-7-------5-6-7--|
E||---4-5---4-5--------------------| x4


e||------------------|------------------|----------------------|------------------|
B||------------------|------------------|----------------------|------------------|
G||-7--5----5--2-----|-7--5----5--2-----|-12--10-----10--7-----|-7--5----5--2-----|
D||-7--5----5--2-----|-7--5----5--2-----|-12--10-----10--7-----|-7--5----5--2-----|
A||-5--3----3--0-----|-5--3----3--0-----|-10--8------8---5-----|-5--3----3--0-----|
E||------------------|------------------|----------------------|------------------|

e||------------------|------------------|----------------------|------------------|
B||------------------|------------------|----------------------|------------------|
G||-7--5----5--2-----|-7--5----5--2-----|-12--10-----10--7-----|-5-------12-------|
D||-7--5----5--2-----|-7--5----5--2-----|-12--10-----10--7-----|-5-------12-------|
A||-5--3----3--0-----|-5--3----3--0-----|-10--8------8---5-----|-3-(16x)-10-(16x)-|
E||------------------|------------------|----------------------|------------------|
pm                                                               *       *


e||-------------------------------|
B||-------------------------------|
G||-------------------------------|
D||-------------------------------|
A||-5-----5-----5-----5-----5-----|
E||---6-7---6-7---6-7---6-7---6-7-| x6

e||-------------------------------|
B||-------------------------------|
G||-------------------------------|
D||-------------------------------|
A||-3-----3-----3-----3-----3-----|
E||---4-5---4-5---4-5---4-5---4-5-| x2


Chorus

e||-----------------------|---------------------|
B||-----------------------|---------------------|
G||-10-----7----7--5--2---|-10-----7------------|
D||-10-10--7----7--5--2---|-10-10--7----5-------|
A||-8--10--5----5--3--0---|-8--10--5----5-------|
E||----8------------------|----8--------3-(16x)-|
pm                                      *

e||-----------------------|--------------------|
B||-----------------------|--------------------|
G||-10-----7----7--5--2---|-10-----7-----------|
D||-10-10--7----7--5--2---|-10-10--7----5------|
A||-8--10--5----5--3--0---|-8--10--5----5------|
E||----8------------------|----8--------3-(9x)-|
pm                                      *

Outro

e||---------|
B||---------|
G||---------|
D||-7-------|
A||-7-------|
E||-5-(16x)-|
pm  *            

e||------------|
B||------------|
G||------------|
D||-5--7-------|
A||-5--7-------|
E||-3--5-(14x)-| x7
pm     *

e||--------|
B||--------|
G||--------|
D||-5--7-7-|
A||-5--7-7-|
E||-3--5-5-|





Comments


Popular Danko Jones tabs & chords
Sleep Is The Enemy Bass Tabs
The Rules 2 Bass Tabs
Cadillac Tabs
First Date 1 Tabs
Full Of Regret Tabs
Just A Beautiful Day Tabs
King Of Magazines 1 Tabs
Natural Tan Tabs
Sound Of Love 2 Tabs
Sticky Situation Tabs


Song lyrics



↑ Back to top | Tablatures and chords are parodies/interpretations of the original songs. You may use it for private study, scholarship, research or language learning purposes only
© 2014 AZChords.com Contact us | Privacy policy | DMCA | Add/correct tabs | Request tabs | Top 50 tabs