» » »

Dance Tabs (ver.1)

Artists:  A B C D E F G H I J K L M N O P Q R S T U V W X Y Z # 

Dance Tabs (ver.1)

Danko Jones
Rating:
5/5 (1 vote)

Hard to play? Try these video lessons and learn fast.
                Performed by: Danko Jones
Regular Tuning(eBGDAE)

Verse:

e|-----------------|
B|-----------------|
G|-------------4p2-|
D|-4-7-4-7-4-7-----|
A|-----------------|
E|-----------------|

Chorus:

e|--------------------------------------------------|
B|--------------------------------------------------|
G|----9-9-9-9----9-9-9-9----9-9-9-9-----------------|
D|-4--9-9-9-9-4--9-9-9-9-4--9-9-9-9-----------------| Play Twice
A|-4--7-7-7-7-4--7-7-7-7-4--7-7-7-7-7-6-5-0-------5-|
E|-2----------2----------2------------------5-6-7---|

Chorus 2:

e|--------------------------------------------------|
B|--------------------------------------------------|
G|----9-9-9-9----9-9-9-9----9-9-9-9-----------------|
D|-4--9-9-9-9-4--9-9-9-9-4--9-9-9-9-----------------| x3 
A|-4--7-7-7-7-4--7-7-7-7-4--7-7-7-7-7-6-5-0-------5-|
E|-2----------2----------2------------------5-6-7---|

e|----------------------------------------------------------------------------------
B|----------------------------------------------------------------------------------
G|----9-9-9-9----9-9-9-9----9-9-9-9-------------------------------------------------
D|-4--9-9-9-9-4--9-9-9-9-4--9-9-9-9-------------------------------------------------
A|-4--7-7-7-7-4--7-7-7-7-4--7-7-7-7-7-6-5-0-------5-7-6-5-0-------5-7-6-5-0-------5-
E|-2----------2----------2------------------5-6-7-----------5-6-7-----------5-6-7---

------------------|
------------------|
------------------|
------------------|
--7-6-5-0-------5-|
----------5-6-7---|

Bridge:

e|---------------|
B|---------------|
G|----14------11-|
D|-14------14----|
A|---------------|
E|---------------|

Before Chorus 3 just strum 244xxx with palmmute lots of times. Listen to the song
to time it right.

Chorus 3:

e|--------------------------------------------------|
B|--------------------------------------------------|
G|----9-9-9-9----9-9-9-9----9-9-9-9-----------------|
D|-4--9-9-9-9-4--9-9-9-9-4--9-9-9-9-----------------| 
A|-4--7-7-7-7-4--7-7-7-7-4--7-7-7-7-7-6-5-0-------5-|
E|-2----------2----------2------------------5-6-7---|

e|------------------------------------------|
B|------------------------------------------|
G|----9-9-9-9----9-9-9-9----9-9-9-9---------|
D|-4--9-9-9-9-4--9-9-9-9-4--9-9-9-9---------| 
A|-4--7-7-7-7-4--7-7-7-7-4--7-7-7-7---------|
E|-2----------2----------2------------------|

e|--------------------------------------------------|
B|--------------------------------------------------|
G|----9-9-9-9----9-9-9-9----9-9-9-9-----------------|
D|-4--9-9-9-9-4--9-9-9-9-4--9-9-9-9-----------------| 
A|-4--7-7-7-7-4--7-7-7-7-4--7-7-7-7-7-6-5-0-------5-|
E|-2----------2----------2------------------5-6-7---|

e|----------------------------------------------------------------------------------
B|----------------------------------------------------------------------------------
G|----9-9-9-9----9-9-9-9----9-9-9-9-------------------------------------------------
D|-4--9-9-9-9-4--9-9-9-9-4--9-9-9-9-------------------------------------------------
A|-4--7-7-7-7-4--7-7-7-7-4--7-7-7-7-7-6-5-0-------5-7-6-5-0-------5-7-6-5-0-------5-
E|-2----------2----------2------------------5-6-7-----------5-6-7-----------5-6-7---

------------------|
------------------|
------------------|
------------------|
--7-6-5-0-------5-|
----------5-6-7---|

Order Of song:

Verse x24
Chorus
Verse x20
Chorus 2
Bridge
Chorus 3

This is about it. I couldn´t tab the part with the strange effects
(Played in the intro and after the bridge)
            
Hard to play? Try these video lessons and learn fast. | Correct




comments powered by Disqus
↑ Back to top | Tablatures and chords are parodies/interpretations of the original songs. You may use it for private study, scholarship, research or language learning purposes only