» » »

Daniel Wesley, Driftin' Tabs (ver.2)

Artists:  A B C D E F G H I J K L M N O P Q R S T U V W X Y Z # 

Driftin' Tabs (ver.2)

Daniel Wesley Tabs
 Rating:
4/5 (4 votes)
Driftin' lessons Tabs too difficult? Try these video lessons and learn fast
1
                Driftin' By Daniel Wesley
--------------------------

On the album he plays the same thing the whole time but live he switches to chords 
during the verses


e|-----------5h7p5-------------7h9p7------------2h4p4--------2-0---|
b|--------5--------5--------7---------7------2---------2---3-----3-|
g|-------6-6------6--------7-7-------7------2-2-------2---2-2------|
d|---5>7-------------7s9----------------3s4--------------0---------|
a|-----------------------------------------------------------------|
E|-----------------------------------------------------------------|

And the chords are Am, Bm, F#m, Dm

e|-----------------------------------------------------------------|
b|-----------------------------------------------------------------|
g|--------------------------------7-7-777--------------------------|
d|--7-7-777---9-9-999---4-4-444---7-7-777--------------------------|
a|--7-7-777---9-9-999---4-4-444---5-5-555--------------------------|
E|--5-5-555---7-7-777---2-2-222------------------------------------|
            
Submit corrections

comments powered by Disqus
↑ Back to top | Daniel Wesley Tabs for Driftin'. Lyrics for acoustic guitar and electric guitar. 1 Tablatures and chords are parodies/interpretations of the original songs. You may use it for private study, scholarship, research or language learning purposes only