» » »

Danger Radio, Your Kind Speak To Me Tabs (ver.3)

Artists:  A B C D E F G H I J K L M N O P Q R S T U V W X Y Z # 

Your Kind Speak To Me Tabs (ver.3)

Danger Radio Tabs
Rating:
0/5 (0 votes)
Hard to play? Try these video lessons and learn fast.
                "(Intro)
into/verse

e|------------------------------------|
b|------------------------------------|
g|-----1-0----------------------------|
d|--3-----3-3-3-----------------------|
a|----------4-4----3----3-------------|
E|1---1---------3-4-4--3--3---3-3-2-1-|

e|---------------------------------|
b|---------------------------------|
g|-----1-0-------------------------|
d|--3-----3-3-3--------------------|
a|----------4-4---3----------------|
E|1---1--------3-4-4---3--3-3-2-1--|


e|----------------------------------------------|
b|----------------------------------------------|
g|----------6-6-x-x-x-x-------------------------|
d|3-x-x-x-x-6-6-x-x-x-x-6---6-x-x-x-5-----------|
a|3-x-x-x-x-4-4-x-x-x-x-6---6-x-x-x-5-----------|
E|1-x-x-x-x-x-x-x-x-x-x-4---4-x-x-x-3---3-3-2-1-|

half of the pre-chorus for guitar 2

e|------------------------------------------------------------|
b|------------------------------------------------------------|
g|3-3-1-3-1-3-1-3-3-1-3-1-3-1---------------------------------|
d|----------------------------3-3-1-3-1-3-1-3-3-1-3-1-3-1-3-3-|
a|------------------------------------------------------------|
E|------------------------------------------------------------|

just the start of the chorus but i'm working on it...

e|------------------------------------------------------------
b|------------------------------------------------------------
g|------------------------------------------------------------
d|3------1-----------------------------------------------------
a|3----3-------------------------------------------------------
E|1--1---------------------------------------------------------
"            

comments powered by Disqus
↑ Back to top | Danger Radio Tabs for Your Kind Speak To Me. Lyrics for acoustic guitar and electric guitar. Tablatures and chords are parodies/interpretations of the original songs. You may use it for private study, scholarship, research or language learning purposes only