» » »

Danger Radio, Your Kind Speak To Me Bass tabs (ver.1)

Artists:  A B C D E F G H I J K L M N O P Q R S T U V W X Y Z # 

Your Kind Speak To Me Bass tabs (ver.1)

Danger Radio Tabs
Rating:
0/5 (0 votes)
Your Kind Speak To Me lessons Tabs too difficult? Try these video lessons and learn fast
                Intro:
G|-----------------------|
D|-----------------------| #Don't play again.
A|----------------44-----|
E|-----4--3--2--11--44--3|

G|------------------------|
D|------------------------|
A|----------------44------|  X4
E|-----4--3--2--11--44--33|

Pre-Chorus:
G|-------------------------|-----------------------------------------------|
D|-------------------------|-----------------------------------------------|
A|-------------------------|-----------------------------------------------|
E|--4--3--2--66--99--22--55|--4--3--2--66--99--10--9--7--99--9--6--1010--97|

Chorus:
G|--------------------|--------|--------------|--------------|
D|--------------------|--------|--------------|--------------|
A|----------1-3-1-3---|--1-3---|--1-3---------|--1-3---------|
E|--1--1-3-5---1---4-3|-1---4-3|-1---4-3-1-5-7|-1---10-7-12-5|

Guitar plays then:
G|---|
D|---|
A|---|
E|-3-|

Intro x1

Pre-Chorus x1

Chorus x1

(Not sure on the soft part)

G|-------------|
D|-------------|
A|-------------|
E|--10-6-12--55|

Chorus x1
            
Submit corrections

comments powered by Disqus
↑ Back to top | Danger Radio Bass for Your Kind Speak To Me. Lyrics for acoustic guitar and electric guitar. Tablatures and chords are parodies/interpretations of the original songs. You may use it for private study, scholarship, research or language learning purposes only