» » »

Damned, New Rose Bass tabs (ver.1)

Artists:  A B C D E F G H I J K L M N O P Q R S T U V W X Y Z # 

New Rose Bass tabs (ver.1)

Damned Tabs
Rating:
2/5 (2 votes)
New Rose lessons Tabs too difficult? Try these video lessons and learn fast
                Intro

G|----------------------------------------------------------|
D|-0-0-0---------2-2-2--------------------------------------|
A|-------2-2-2-2-------0-0-0-0------------------------------|
E|----------------------------------------------------------|x4

Main Riff

G|----------------------------------------------------------|
D|--44-6----------------------------------------------------|
A|-------777777777777---------------------------------------|
E|----------------------------------------------------------|x4

Or

G|----------------------------------------------------------|
D|----------------------------------------------------------|
A|----------------------------------------------------------|
E|--22-4-000000000000---------------------------------------|

Chorus Bit

G|----------------------------------------------------------|
D|----------------------------------------------------------|
A|--33333333333332-0000000000002-33333333333332-000000000000|
E|----------------------------------------------------------|


"i never thought this could happen to me"

G|----------------------------------------------------------|
D|----------------------------------------------------------|
A|--111111133333333555555555555555--------------------------|
E|----------------------------------------------------------|x4(i think)


i think thats right but you should definetly listen to the song for timing
            
Submit corrections

comments powered by Disqus
↑ Back to top | Damned Bass for New Rose. Lyrics for acoustic guitar and electric guitar. Tablatures and chords are parodies/interpretations of the original songs. You may use it for private study, scholarship, research or language learning purposes only