>
 >
New Rose

New Rose Guitar Tabs

Damned - New Rose chords, tabs, tablatures, lyrics

Guitar lessons | Add/correct | Request | Top 50 tabs Artists:  A B C D E F G H I J K L M N O P Q R S T U V W X Y Z 0-9

New Rose Guitar Tabs – Damned

CD, Sheet music, Poster

Do you like New Rose? Share with your friends now
Bass TabsBass Tabs v2Bass Tabs v3ChordsTabsUkulele
tuning: stndard

i am pretty sure this is right but i dont know.
p.s. this is my first tab so please rate and comment

the timings not great, or even good

"is she really going out with him?"
          drum intro
                           
                           _______      
                                  |
e|--------------------------|     |
B|--------------------------|     | 
G|7--7-7------9-9-9-9-------|     |intro
D|7--7-7-9--9-9-9-9-9-7--7-7|     | X4
A|5--5-5-9--9-7-7-7-7-7--7-7|     |
E|-------7--7---------5--5-5|     |  
                           _______|

*snare drum bit*
   AH!
e|--5----| 
B|--5----| 
G|--6----| 
D|--7----|
A|-------| 
E|-------|
                                         ______
                                               |
e|--------------------------------------|      |  
B|--------------------------------------|      |
G|-11-11-13-9--9----9-9-9----9-9-9----9-|      | chours
D|-11-11-13-9--9-11-9-9-9-11-9-9-9-11-9-|      |   X4
A|-9--9--11-7--7-7--7-7-7-7--7-7-7-7--7-|      |[no words]
E|--------------------------------------|      |
                                               |
                                         ______|
 

                                     __________
  i gotta feeling inside of me                 |
e|-----------------------------------          |
B|-----------------------------------          | verse 1
G|----------------------------5-5-2-2          | 
D|----------------------------5-5-2-2          |
A|----------------------------3-3-0-0          |            
E|-----------------------------------          | 
                                               | 
  its kind strange like a stormy sea           | 
e|-----------------------------------------    | 
B|-----------------------------------------    |
G|----------------------------------2-2-5-5    |
D|----------------------------------2-2-5-5    |
A|----------------------------------0-0-3-3    |
E|-----------------------------------------    |
                                               |
                                               |
  i dont know why i dont know why              |                            
e|-----------------------------------          |
B|-----------------------------------          | 
G|----------------------------5-5-2-2          | 
D|----------------------------5-5-2-2          |
A|----------------------------3-3-0-0          |            
E|-----------------------------------          |  
                                               |
 i geuss these things have gotta be  __________|
                                                                                        
               *then play the chorus X4*       
but instead of playing 3-3-0-0 play the 9-9-11-7 of start of the chorus


                                _______________
  see the sun, see the sunny side              |
e|---------------------------------            |   
B|---------------------------------            |   
G|-5-5-5-5-5-5-5-5-5-5-5-5-5-5-5-5-            |
D|-5-5-5-5-5-5-5-5-5-5-5-5-5-5-5-5-            |
A|-3-3-3-3-3-3-3-3-3-3-3-3-3-3-3-3-            |
E|---------------------------------            |
                                               |
dont get to close or it'll burn your eyes      | verses 2 & 3
e|---------------------------------            | [verse 3 with 
B|---------------------------------            | different words 
G|-2-2-2-2-2-2-2-2-2-2-2-2-2-2-2-2-            | than the ones
D|-2-2-2-2-2-2-2-2-2-2-2-2-2-2-2-2-            | shown. obviously]
A|-0-0-0-0-0-0-0-0-0-0-0-0-0-0-0-0-            |
E|---------------------------------            |
                                               |
  dont you run away that way                   |
e|---------------------------------            |
B|---------------------------------            | 
G|-5-5-5-5-5-5-5-5-5-5-5-5-5-5-5-5-            |
D|-5-5-5-5-5-5-5-5-5-5-5-5-5-5-5-5-            |
A|-3-3-3-3-3-3-3-3-3-3-3-3-3-3-3-3-            |
E|---------------------------------            |
                                               |
  you can come back another day                |
e|------------------------------------         |
B|------------------------------------         | 
G|-2-2-2-2-2-2-2-2-2-2-2-2-11-11-13-5-         |
D|-2-2-2-2-2-2-2-2-2-2-2-2-11-11-13-5-         |
A|-0-0-0-0-0-0-0-0-0-0-0-0-9--9--11-7-         |
E|------------------------------------         |
                                 ______________|


 *then play the chours X4*


 i never thought this could happen to me _____
e|-----------------------------------------   |
B|-----------------------------------------   | 
G|-----------------------------------------   | bridge
D|-7-7-7-7-9-9-9-9-11-11-11-11-11-11-11-11-   |  X4
A|-7-7-7-7-9-9-9-9-11-11-11-11-11-11-11-11-   |
E|-5-5-5-5-7-7-7-7-9--9--9--9--9--9--9--9--   |
                                         _____|
here you can play 11 or a short solo thingy.
                  11
                  9
   

   *then play the intro X4* 

   *then the snare drum bit X1*         
   
   *then play the chorus X4 [no words]* 

   *then play verse 3 X4* 
   
   *then the chorus X4*
 
                        _______
e|--------------------------   |
B|--------------------------   |
G|-11-11-13-9-9-9-9-8/9-9-9-   | outro X4
D|-11-11-13-9-9-9-9-8/9-9-9-   | 
A|-9--9--11-7-7-7-7-6/7-7-7-   |
E|--------------------------   |
                        _______| 


drum intro X1
intro X4
snare drum bit [AH!] X1
chorus X4 [no words]
verse 1 X1
chorus X4
verse 2 X1
chorus X4
bridge X4
intro X4
snare drum bit [AH!] X1
chorus X4 [no words]
verse 3 X1
chorus X4
outro X4





Comments


Popular Damned tabs & chords
Eloise Bass Tabs
Neat Neat Neat 3 Bass Tabs
The Shadow Of Love Bass Tabs
Antipope Chords
Video Nasty Chords
Democracy? Tabs
Ignite Tabs
Smash It Up 1 Tabs
Smash It Up Part 1 Tabs
Wait For The Blackout Intro Tabs


Song lyrics



↑ Back to top | Tablatures and chords are parodies/interpretations of the original songs. You may use it for private study, scholarship, research or language learning purposes only
© 2014 AZChords.com Contact us | Privacy policy | DMCA | Add/correct tabs | Request tabs | Top 50 tabs