» » »

Dallas Green, This Sudden Injury Tabs (ver.1)

Artists:  A B C D E F G H I J K L M N O P Q R S T U V W X Y Z # 

This Sudden Injury Tabs (ver.1)

Dallas Green Tabs
 Rating:
4.3/5 (6 votes)
This Sudden Injury lessons Tabs too difficult? Try these video lessons and learn fast
                ---------------------------------------------------------------------------------------|
---------------------------------------------------------------------------------------|

Tuning: Standard (EADGBe)

Capo on 3rd fret.


the way i play it makes it seem almost perfect, imma do this quick though and just put 
chords you play. i'm basically writing this so i won't forget it later on ahaha.


listen for the palm mutes/strum patters.

Intro/Verse
e|---------------------------------------------------|
B|---------------------------1-1--0-0--0-0-----------|
G|-------------0-0-0-0-------0-0--0-0--0-0-----------|  over and over till
D|-2-2---4-4---2-2-2-2-(1x)--2-2--2-2--2-2-(2x)------|     chorus
A|-2-2---2-2---2-2-2-2-------3-3--3-3--0-0-----------|
E|-0-0---0-0---0-0-0-0-------------------------------|


Chorus

e|-------------------------------|
B|-------------------------------|
G|-----4---4---------------------|
D|-7---4---5---------------------|
A|-7---2---5---------------------|
E|-5-------3---------------------|


Break thing before the verse is the Verse,
  with a couple variations

Intro/Verse
e|------------------2---------------------------------|
B|--------------------3-------1-1--0-0--0-0-----------|
G|-------------0-0------------0-0--0-0--0-0-----------| 2x   just mess with
D|-2-2---4-4---2-2------(1x)--2-2--2-2--2-2-(2x)------|     2 and 3 on the e
A|-2-2---2-2---2-2------------3-3--3-3--0-0-----------|      and B
E|-0-0---0-0---0-0------------------------------------|


Then Verse again
Intro/Verse
e|---------------------------------------------------|
B|---------------------------1-1--0-0--0-0-----------|
G|-------------0-0-0-0-------0-0--0-0--0-0-----------|  over and over till
D|-2-2---4-4---2-2-2-2-(1x)--2-2--2-2--2-2-(2x)------|     chorus
A|-2-2---2-2---2-2-2-2-------3-3--3-3--0-0-----------|
E|-0-0---0-0---0-0-0-0-------------------------------|


Chorus
e|-------------------------------|
B|-------------------------------|
G|-----4---4---------------------|
D|-7---4---5---------------------|
A|-7---2---5---------------------|
E|-5-------3---------------------|


Palm muted part.
e|--------------------------------------------------|
B|-------------1--1-0-1-3---1---------1--1-0-1-3----|
G|-------2-2---0--0-0-0-0---0--0-0----0--0-0-0-0----|
D|-2-2---0-0---2--2-2-2-2---2--2-2----2--2-2-2-2----|
A|-2-2---0-0---3--3-3-3-3---3--0-0----3--3-3-3-3----|
E|-0-0----------------------------------------------|

And I cry myself awake
And I cry myself awake

Ending is just the palm muted part played non muted.

End Chord
e|--0~-|
B|--0~-|
G|--0~-|
D|--2~-|
A|--2~-|
E|--0~-|

This should all be pretty close, it sounds better than the other tabs up now.

rate me, if you like it.
===============================================================================
            
Submit corrections

comments powered by Disqus
↑ Back to top | Dallas Green Tabs for This Sudden Injury. Lyrics for acoustic guitar and electric guitar. Tablatures and chords are parodies/interpretations of the original songs. You may use it for private study, scholarship, research or language learning purposes only