» » »

Dallas Green, Day Old Hate Tabs (ver.1)

Artists:  A B C D E F G H I J K L M N O P Q R S T U V W X Y Z # 

Day Old Hate Tabs (ver.1)

Dallas Green Tabs
Rating:
0/5 (0 votes)
Day Old Hate lessons Tabs too difficult? Try these video lessons and learn fast
                Drop D tuning, Capo on second fret

|---------2h4-----------4h5p4-----4----------0-------|
|----------------2p0-------------5-------5-----0-----|
|-------------------------------------------------4--|
|-2h4-------------------------------------------2----|
|-------------------------------------------------0--|
|----------------------------------------------------|

Chords (something along these lines)

|-0---------------------0---------------|
|-0---------------------0---------------|
|-4 - a while then---2 a while----------|
|-2---------------------2---------------|
|------------------------0--------------|
|------------------------0--------------|

The Chorus is SOMETHING like

|-0------------------------------------0--------0----|
|-0------------------------------------0--------0----|
|-6 (x16, up and downstrokes)-4 (x16)-2--------------|
|-6------------------------------------4--------2----|
|-4------------------------------------2--------0----|
|----------------------------------------------------|
            

comments powered by Disqus
↑ Back to top | Dallas Green Tabs for Day Old Hate. Lyrics for acoustic guitar and electric guitar. Tablatures and chords are parodies/interpretations of the original songs. You may use it for private study, scholarship, research or language learning purposes only