>
 >
Comin Home

Comin Home Guitar Tabs

Dallas Green - Comin Home chords, tabs, tablatures, lyrics

Guitar lessons | Add/correct | Request | Top 50 tabs Artists:  A B C D E F G H I J K L M N O P Q R S T U V W X Y Z 0-9

Comin Home Guitar Tabs – Dallas Green

CD, Sheet music, Poster

Do you like Comin Home? Share with your friends now
Tabs
This tab is very close to the song except Dallas must be using a different Tuning.
I use a capo instead, seems pretty accurate.

Excellent song by Dallas Green from his solo album - Sometimes ... Enjoy


CAPO 2nd Fret


[intro]

e|----------------------0----x-0-0--0----x-0-0----------|
B|-2/4\2--0-------------0----x-0-0--0----x-0-0----------|
G|-----------2/4\2-0----0----x-0-0--0----x-0-0----------|
D|----------------------2----x-2-2--5----x-5-5----------|
A|----------------------2----x-0-2--3----x-0-3----------|
E|----------------------0----x-0-0--X----x-x-x----------|
  
e|-0----x---------------------0----x-0-0----------------| 
B|-0----x--2/4\2--0-----------0----x-0-0----------------|
G|-0----x------------2/4\2-0--0----x-0-0----------------|
D|-2----x---------------------5----x-5-5----------------|
A|-2----x---------------------3----x-0-3----------------|
E|-0----x---------------------x----x-x-x----------------|



e|--0----x-0-0-0----x-0-0--------------------------------|
B|--0----x-0-0-0----x-0-0--------------------------------|
G|--0----x-0-0-0----x-0-0--------------------------------|   Played the entire song
D|--2----x-2-2-5----x-5-5--------------------------------|
A|--2----x-0-2-3----x-0-3--------------------------------|
E|--0----x-0-0-x----x-x-x--------------------------------|


BRIDGE: (played softly) - ... taking chances, told me life was a risk ...-
e|--0----x-0-0-0----x-0-0--------------------------------|
B|--0----x-0-0-0----x-0-0--------------------------------|
G|--0----x-0-0-0----x-0-0--------------------------------|   
D|--7----x-7-7-5----x-5-5--------------------------------|
A|--5----x-0-5-3----x-0-3--------------------------------|
E|--x----x-0-0-x----x-x-x--------------------------------|


Little riff being played sometimes (other guitar):

e|-3/5\3--------3-----------------------------------|
B|---------3p5----3~--5-----------------------------|
G|--------------------------------------------------|
D|--------------------------------------------------|
A|--------------------------------------------------|
E|--------------------------------------------------|





Comments


Popular Dallas Green tabs & chords
Hope For Now Chords
Cowgirl In The Sand Tabs
Day Old Hate Tabs
In The Water, I Am Beautiful Tabs
Like Knives Tabs
Sam Malone Tabs
Save Your Scissors Tabs
Sometimes I Wish Tabs
The Grace Tabs
This Sudden Injury Tabs


Song lyrics



↑ Back to top | Tablatures and chords are parodies/interpretations of the original songs. You may use it for private study, scholarship, research or language learning purposes only
© 2014 AZChords.com Contact us | Privacy policy | DMCA | Add/correct tabs | Request tabs | Top 50 tabs