» » »

So Low Tabs (ver.1)

Artists:  A B C D E F G H I J K L M N O P Q R S T U V W X Y Z # 

So Low Tabs (ver.1)

Dallas Green
Rating:
0/5 (0 votes)

Hard to play? Try these video lessons and learn fast.
                Gtr I (Eb Ab Db Gb Bb Eb) - 'Untitled'

Q=77
4/4
Gtr I
S S S S S S S S S S S S S S S S S S S S S S S E S S S S S S S
|---------------------------------|---------7-----------7---------|
|-9---9---7---9---7---9---7---9---|---------------7-----------7---|
|---6---6---6---6---6---6---6---6-|-8h9-8h9---9-9---9-8---8-9---9-|
|---------------------------------|-------------------------------|
|---------------------------------|-------------------------------|
|---------------------------------|-------------------------------|


S S S S S S S S S S S S S S S S S S S S S S S S S S S S S S S S
|---------------------------------|---------------------------------|
|---------7---------------7-------|---------7---------------7-------|
|---8-9-----9---9---8-9-----9---9-|---8-9-----9---9---8-9-----9---6-|
|-7-----7-----7---7-----7-----7---|-6-----6-----6---7-----7-----7---|
|---------------------------------|---------------------------------|
|---------------------------------|---------------------------------|


S S S S S S S S S S S S S S S S S S S S S S S E S S S S S S S
|---------------7-----------------|---------7---------------------|
|-9---9---7-9-----9---7---9---7---|---------------7---------------|
|---6---6-----6-----6---6---6---6-|-8h9-8h9---9-9---9-9-9-9-9-9-9-|
|---------------------------------|-------------------------------|
|---------------------------------|-------------------------------|
|---------------------------------|-------------------------------|


S S S S S S S S S S S S S S S S S S S S H +E. T T
|---------------------------------|----------------------|
|---------7---------------7-------|---------7----(7)-----|
|---8-9-----9---9---8-9-----9---9-|---8-9------------x-x-|
|-7-----7-----7---7-----7-----7---|-6-----6----------x-x-|
|---------------------------------|------------------x-x-|
|---------------------------------|------------------x-x-|


S S E E T T E S E S S S T T S S E E S E S E S S S T T
|-------------------------------------------|-------------7-7-7-7-7-7-----|
|-------------------------------------------|---------7-7-7-7-7-7-7-7-----|
|--------9--9--9--9-------------------------|---------8-8-9-9-9-9-9-9-x-x-|
|-11-11-11-11-11-11-13--9--9--9--9--9--9--9-|--9--9---9-9-9-9-9-9-9-9-x-x-|
|-11-11-11-11-11-11-11-11-11-11-11-11-11-11-|-11-12-7-7-7-7-7-7-7-7-7-x-x-|
|--9--9--9--9--9--9--9--9--9--9--9--9--9--9-|--9--9-0-0-0-0-0-0-0-0-0-----|


S S S S E S E S E S S S T T S S S S E S E S S S S S S S
|-----------------------------|-----------------------------|
|-----------------------------|-----------------------------|
|---6-6---6---6-6-6-6-6-6-6-6-|---6-6---6---6-6-6-6S8-8-8-8-|
|-7-7-7-7-7-7-7-7-7-7-7-7-7-7-|-7-7-7-7-7-7-7-7-7-7S9-9-9-9-|
|-7-7-7-7-7-7-7-7-7-7-7-7-7-7-|-7-7-7-7-7-7-7-7-7-7S9-9-9-9-|
|-5-5-5-5-5-5-5-5-5-5-5-5-5-5-|-4-4-4-4-4-4-5-5-5-5S7-7-7-7-|


S S S S E T T E S E S S S T T S S E E S Q S S S S T T
|--------------------------------------------|---------------7----7-7-7-----|
|--------------------------------------------|---------7-(7)-7----7-7-7-----|
|------------9--9--9-------------------------|---------8-(8)-9----9-9-9-x-x-|
|-9-11-9-11-11-11-11--9--9--9--9--9--9--9--9-|--9--9---9-(9)-9----9-9-9-x-x-|
|-9-11-9-11-11-11-11-11-11-11-11-11-11-11-11-|-11-12-7-7--7--7--7-7-7-7-x-x-|
|-7--9-9--9--9--9--9--9--9--9--9--9--9--9--9-|--9--9-0-7--7--7--7-7-7-7-----|


S S S S E S E S E S S S T T S S S S E S E S S S S S S S
|-----------------------------|-----------------------------|
|-----------------------------|-----------------------------|
|---6---6-6---6-6-6-6-6-6-6-6-|---6-6---6---6-6-6-6-6-8-8-8-|
|-7-7-7-7-7-7-7-7-7-7-7-7-7-7-|-7-7-7-7-7-7-7-7-7-7-7-9-9-9-|
|-7-7-7-7-7-7-7-7-7-7-7-7-7-7-|-7-7-7-7-7-7-7-7-7-7-7-9-9-9-|
|-5-5-5-5-5-5-5-5-5-5-5-5-5-5-|-4-4-4-4-4-4-5-5-5-5-5-7-7-7-|


S S S S E S E S +S S S S S S S S E E S E E S S S S S
|--------------------------------------------|-------------7-7-7-7-7-7-7--|
|--------------------------------------------|---------7-7-7-7-7-7-7-7-7--|
|-------------9--9--9------------------------|---------8-8-9-9-9-9-9-9-9--|
|-9S11-11-11-11-11-11-13-(13)-13-13-13-13--9-|--9--9---9-9-9-9-9-9-9-9-9--|
|-9S11-11-11-11-11-11-11-(11)-11-11-11-11-12-|-11-12-7-7-7-7-7-7-7-7-7-7--|
|-7S=9--9--9--9--9--9--9--(9)--9--9--9--9--9-|--9--9-0--------------------|


S S S S E S E S E S S S S +S S S S E S E S S T T S +S S T T
|---------------------------|-------------------------------------|
|---------------------------|-------------------------------------|
|-6-6-6-6-6-6-6-6-6-6-6-6-6-|-(6)-6-6-6-6-6-6-6-6-6-6-6-(6)-6-6-6-|
|-7-7-7-7-7-7-7-7-7-7-7-7-7-|-(7)-7-7-7-7-7-7-7-7-7-7-7-(7)-7-7-7-|
|-7-7-7-7-7-7-7-7-7-7-7-7-7-|-(7)-7-7-7-7-7-7-7-7-7-7-7-(7)-7-7-7-|
|-5-5-5-5-5-5-5-5-5-5-5-5-4-|-(4)-4-4-4-4-4-5-5-5-5-5-7-(7)-7-7-7-|


S S E E T T S S S S S S S S S
|------------------------------------------------------|
|------------------------------------------------------|
|-----------9--9--9------------------------------------|
|--9-11-11-11-11-11-13-(13)-13-(13)-13-(13)-13-(13)-13-|
|-11-11-11-11-11-11-11-(11)-11-(11)-11-(11)-11-(11)-11-|
|--9--9--9--9--9--9--9--(9)--9--(9)--9--(9)--9--(9)--9-|


S S E E S E S E S S S S
|-------7-(7)-7-7-7-7-7-7-7-|
|-------7-(7)-7-7-7-7-7-7-7-|
|-------8-(8)-9-9-9-9-9-9-9-|
|-9-9-9-9-(9)-9-9-9-9-9-9-9-|
|-7-7-7-7--7--7-7-7-7-7-7-7-|
|-0-0-0-0--0--0-0-0-0-0-0-0-|


E E E S E S E S S S T T S S S S E S E S S S S S S S
|-------------------------|------------------------------|
|-------------------------|------------------------------|
|-6-6-6-6-6-6-6-6-6-6-6-6-|-6-6-6-6-6-6-6-6-6-6-6-6-6-6--|
|-7-7-7-7-7-7-7-7-7-7-7-7-|-7-7-7-7-7-7-7-7-7-7-7-7-7-7--|
|-7-7-7-7-7-7-7-7-7-7-7-7-|-7-7-7-7-7-7-7-7-7-7-7-7-7-7--|
|-5-5-5-5-5-5-5-5-5-5-5-5-|-4-4-4-4-4-4-5-5-5-5-5-7-7-7--|


S S S S E S E S S S S S S S S S E E S E E S S S S T T
|------------------------------------------|-------------7-7-7-7-7-7-x-x-|
|------------------------------------------|---------7-7-7-7-7-7-7-7-x-x-|
|-------------9--9-------------------------|---------8-8-9-9-9-9-9-9-x-x-|
|-9S11-11-11-11-11-13-13-13-13-13-13-13-13-|--9--9---9-9-9-9-9-9-9-9-x-x-|
|-9S11-11-11-11-11-11-11-11-11-11-11-11-11-|-11-12-7-7-7-7-7-7-7-7-7-x-x-|
|-7S=9--9--9--9--9--9--9--9--9--9--9--9--9-|--9--9-0---------------------|


S S S S E S E S E S S S T T S S S +S E S E S S S S S S S
|-----------------------------|-------------------------------|
|-----------------------------|-------------------------------|
|-6-6-6-6-6-6-6-6-6-6-6-6-6-6-|-6-6-6-(6)-6-6-6-6-6-6-6-------|
|-7-7-7-7-7-7-7-7-7-7-7-7-7-7-|-7-7-7-(7)-7-7-7-7-7-7-7-7-7-7-|
|-7-7-7-7-7-7-7-7-7-7-7-7-7-7-|-7-7-7-(7)-7-7-7-7-7-7-7s9-9-9-|
|-5-5-5-5-5-5-5-5-5-5-5-5-5-5-|-4-4-4-(4)-4-4-5-5-5-5-5s7-7-7-|
            
Hard to play? Try these video lessons and learn fast. | Correct




comments powered by Disqus
↑ Back to top | Tablatures and chords are parodies/interpretations of the original songs. You may use it for private study, scholarship, research or language learning purposes only