» » »

Dallas Green, Like Knives Tabs (ver.1)

Artists:  A B C D E F G H I J K L M N O P Q R S T U V W X Y Z # 

Like Knives Tabs (ver.1)

Dallas Green Tabs
 Rating:
4/5 (4 votes)
Like Knives lessons Tabs too difficult? Try these video lessons and learn fast
                CGDGBe Tuning Capo 4th Fret

X----X----X----X---X-|
0----0----0----0---0-|
0----0----0----0---0-|
0----0----0----0---0-|
5-h--7----4----2---0-| let this note ring
4----4----4----4---0-| let this note ring

0--------0----0----0----0---|
0--------0----0----0----0---|
2/4--/---5-/--7--\-4----2p0-|
0--------0----0----0----0---|
X--------X----X----X--------|X this note is still ringing
X--------X----X----X--------|X this note is still ringing

0------0--0---------------------|
3------3--3---------------------|
0------0--0-----------------2p0-|
4------0--4-----0^2^4-----------|
2------0--0---------------------|
2------0--X---------------------|


Chorus 2nd pass:

0------0---0----0----------------|
3------3---3----3----------------|
0------0---0----0------------2p0-|
4--p---0---4-p--2-----0^2^4------|
2--p---0---0----0----------------|
2------0---X----X----------------|


Chorus 3rd pass:

0------0---0----2-------------------|
3------3---3----3-------------------|
0------0---0----0---------------2p0-|
4--p---0---4----4--------0^2^4------|
2--p---0---0----0-------------------|
2------0---X----X-------------------|


Chorus 4th pass:

0------0---0----0------------0-| this last chord hangs
3------3---3----3------------0-| into the break
0------0---0----0------------0-|
4--p---0---4-p--2------------2-|
2--p---0---0----0------------0-|
2------0---X----X------------X-|

LEAD IN TO END IS STILL GOOD I THINK

0-----0-----0-|
3-----3-----3-|
0--^--2--^-4--|
0-----0-----0-|
0-----0-----0-|
X-----X-----X-|


X-----X
0-----0
4--^-5
5-----5-|
0-----0-|
X-----X

FINAL CHORD HAS BEEN CHANGED

X-----X
3-----3-|
0-----0-|
5--P--4-|
2-----2-|
X-----X
            
Submit corrections

comments powered by Disqus
↑ Back to top | Dallas Green Tabs for Like Knives. Lyrics for acoustic guitar and electric guitar. Tablatures and chords are parodies/interpretations of the original songs. You may use it for private study, scholarship, research or language learning purposes only