» » »

Daggermouth, Glendale P.D. Hates Daggermouth Tabs (ver.1)

Artists:  A B C D E F G H I J K L M N O P Q R S T U V W X Y Z # 

Glendale P.D. Hates Daggermouth Tabs (ver.1)

Daggermouth Tabs
Rating:
0/5 (0 votes)
Glendale P.D. Hates Daggermouth lessons Tabs too difficult? Try these video lessons and learn fast
                
***best pop punk****

Pretty simple tab. It is in Eb. ( tune half step down )
Daggermouth kicks ass.
Aint no party like a daggermouth party.
Any questions or anything email

INTRO
Eb----------------------------------------------------------------|
Bb----------------------------------------------------------------|
Gb----------------------------------------------------------------|
Db--9-999-9-9-9-----6/4/6------9-999-9-9-9----6/4/2---------------|  X2
Ab--7-777-7-7-7-----4/2/4------7-777-7-7-7----4/2/2---------------|
Eb------------------------------------------------0---------------|
     ...                        ...

Eb-----------|
Bb-----------|
Gb--Pick Scr*pe
Db-----------|
Ab-----------|
Eb-----------|

VERSE
Eb----------------------------------------------------------------|
Bb----------------------------------------------------------------|
Gb----------------222---------------------------------------------|
Db--99999-666-444-222-444-222--4/6/4------------------------------|
Ab--77777-444-222-000-222-222--2/4/2------------------------------|
Eb------------------------000-------------------------------------|


Eb--------------------------------------------------------------|
Bb--------------------------------------------------------------|
Gb----------------222-------------------------------------------|
Db--99999-666-444-222-444-2222--22------------------------------|
Ab--77777-444-222-000-222-2222--22------------------------------|
Eb------------------------0000--00------------------------------|
                         ....


Eb----------------------------------------------------------------|
Bb----------------------------------------------------------------|
Gb----------------------------------------------------------------|
Db------------------999-999-99999---------------------------------|
Ab-66666-77777------777-666-77777---66666-77777-------------------|
Eb-44444-55555--------------55555---44444-55555-------------------|


Eb------0---------0-------------0---------------------------------|
Bb--------0---------0-------------0-------------------------------|
Gb----------------------------------------------------------------|
Db-222-------222-------------2------------------------------------|
Ab-222-------222---------7-9-2------------------------------------|
Eb-000-------000---------5-7-0------------------------------------|

Eb------0---------0----------------------------------------------|
Bb--------0---------0--------------------------------------------|
Gb---------------------------------------------------------------|
Db-222-------222-------------222-----------------------9---------|
Ab-222-------222---------7-9-222(ring)-----------------7-(ring)--|
Eb-000-------000---------5-7-000---------------------------------|

Eb-----------|
Bb-----------|
Gb--Pick Scr*pe
Db-----------|
Ab-----------|
Eb-----------|

BREAKDOWN SON!
Eb------0---------0-7p0-----------0-----0--444--------------------|
Bb----4----------4-4---4p0-------4-----4-4-444--------------------|
Gb---------------------------22-----22----------------------------|
Db---------------------------22-----22----------------------------|
Ab-22------22----------------00-----00----------------------------|
Eb-00------00-----------------------------------------------------|
  ..      ..                ..     ..
                                                                    X2


Eb------0---------0-7p0-----------0-----0--444--------------------|
Bb----4----------4-4---4p0-------4-----4-4-444--------------------|
Gb----------------------------------------------------------------|
Db-66--------66--------------44-----44----------------------------|
Ab-44--------44--------------22-----22----------------------------|
Eb----------------------------------------------------------------|
  ..        ..              ..     ..

Eb--------0-7p0-------------0--4444----------0-7p0--------------0--4444--|
Bb-------4-4---4p0---------4-4-4444---------4-4---4p0----------4-4-4444--|
Gb------------------222222-----------------------------------------------|
Db-222222-----------222222-----------666666-------------444444-----------| X2
Ab-222222-----------000000-----------444444-------------222222-----------|
Eb-000000----------------------------------------------------------------|
  ......           ......           ......             ......

OUTRO
Eb-------------------------------------------------------|
Bb-------------------------------------------------------|
Gb------------------2222222222222-----222222222222-------|
Db-2222222222222222-2222222222222-444-222222222222-4/6/4-|  X2
Ab-2222222222222222-0000000000000-222-000000000000-2/4/2-|
Eb-0000000000000000--------------------------------------|

Eb-------|
Bb-------|
Gb-------|
Db-2-----|
Ab-2-----|
Eb-0-----|
            

comments powered by Disqus
↑ Back to top | Daggermouth Tabs for Glendale P.D. Hates Daggermouth. Lyrics for acoustic guitar and electric guitar. Tablatures and chords are parodies/interpretations of the original songs. You may use it for private study, scholarship, research or language learning purposes only