» » »

Daggermouth, Glendale P.D. Hates Daggermouth Bass tabs (ver.1)

Artists:  A B C D E F G H I J K L M N O P Q R S T U V W X Y Z # 

Glendale P.D. Hates Daggermouth Bass tabs (ver.1)

Daggermouth Tabs
 Rating:
4/5 (4 votes)
Glendale P.D. Hates Daggermouth lessons Tabs too difficult? Try these video lessons and learn fast
                Tuning: Eb Ab Db Gb

Intro (x2)

|-----------------------------|
|-2-2-2-2-------2-2-2-2-------|
|---------4-2-4---------4-2---|
|---------------------------0-|

End On (x1)

|---|
|---|
|---|
|-0-|

Verse (x1)

|-----------------------------------------------------------------------------------------------|
|-2-2-2-2-2--------------------------------------2-2-2-2-2--------------------------------------|
|-----------4-4-4-2-2-2-0-0-0-2-2-2---------4-2------------4-4-4-2-2-2-0-0-0-2-2-2--------------|
|-----------------------------------0-0-0-0-----------------------------------------0-0-0-0-0-0-|

Pre Chorus (x1)

|----------------------------------------------------------------|
|----------------------2-2-2-1-1-1-------------------------------|
|-----------0-0-0-0-0--------------0-0-0-0-0-----------0-0-0-0-0-|
|-4-4-4-4-4----------------------------------4-4-4-4-4-----------|

Chorus (x2)

|---------------------|
|---------------------|
|---------------0-2---|
|-0-0-0--0-0-0------0-|

Bridge (x2)

|----------------------------------------|
|----------------------------------------|
|-----------0-0--0-0--4-4--4-4--2-2--2-2-|
|-0-0--0-0-------------------------------|

Bridge Part 2 (x2)

|------------------------------------------------------------------------------------------------|
|------------------------------------------------------------------------------------------------|
|-------------------------0-0-0-0-0-0-0-0-0-0-0-0-4-4-4-4-4-4-4-4-4-4-4-4-2-2-2-2-2-2-2-2-2-2-2-2|
|-0-0-0-0-0-0-0-0-0-0-0-0------------------------------------------------------------------------|

Ending (x2)

|-----------------------------------------------------------------------------|
|-----------------------------------------------------------------------------|
|---------------------------------0-0-0-0-0-0-0-0-0-0-0-0-4-0-0-0-0-0-0-2-4-2-|
|-0-0-0-0-0-0-0-0-0-0-0-0-0-0-0-0---------------------------------------------|

End On (x1)

|---|
|---|
|---|
|-0-|
            
Submit corrections

comments powered by Disqus
↑ Back to top | Daggermouth Bass for Glendale P.D. Hates Daggermouth. Lyrics for acoustic guitar and electric guitar. Tablatures and chords are parodies/interpretations of the original songs. You may use it for private study, scholarship, research or language learning purposes only