» » »

Daft Punk, Something About Us Tabs (ver.3)

Artists:  A B C D E F G H I J K L M N O P Q R S T U V W X Y Z # 

Something About Us Tabs (ver.3)

Daft Punk Tabs
Rating:
0/5 (0 votes)
Something About Us lessons Tabs too difficult? Try these video lessons and learn fast
                -------------------------------------------------------------------------------
                             Something About Us - Daft Punk
-------------------------------------------------------------------------------

Tuning: Standard

This is very much a work in progress. I'm missing little notes in there but it's getting close. 

 vocal melody
e|----------------------------------------------------------------------------------------------|
B|----------------------------------------------------------------------------------------------|
G|-0-2-55-2-/7-5---0-2-55-0-2-------------------------------------------------------------------|
D|-----------------------------0--------0-3-55-3-0-0--0-2-3-5--3-5-77-5-3-3-03-0----------------|
A|----------------------------------------------------------------------------------------------|
E|----------------------------------------------------------------------------------------------|

e|------------------------------------------------------------------------------------------|
B|-----------6/8-6--------------------------------------------------------------------------|
G|--0-2-55-2-5/7-5--0-2-55-0-2--------------------------------------------------------------|
D|------------------------------0-----------------------------------------------------------|
A|------------------------------------------------------------------------------------------|
E|------------------------------------------------------------------------------------------|

e|---------------------------------------------------------------------------------|
B|---------------------5-6-8-55----------------------------------------------------|
G|----------------5-7------------77-5-7--------------------------------------------|
D|---------------------------------------------------------------------------------|
A|---------------------------------------------------------------------------------|
E|---------------------------------------------------------------------------------|

I'll miss you more than anything in my life..

I know this is rough with some bad notes but 
I'm hoping this will help out anyone with a talk box or a vocoder 
that's wanting to cover this. 
Corrections are very welcome. 

************************************

| /   slide up
| \   slide down
| h   hammer-on
| p   pull-off
| ~   vibrato
| +   harmonic
| x   Mute note
| b   Bend
| pb  Pre-bend
| br  Bend release
| pbr Pre-bend release
| brb Bend release bend

************************************
            
Submit corrections

comments powered by Disqus
↑ Back to top | Daft Punk Tabs for Something About Us. Lyrics for acoustic guitar and electric guitar. Tablatures and chords are parodies/interpretations of the original songs. You may use it for private study, scholarship, research or language learning purposes only