>
 >
Eagle Rock 2

Eagle Rock 2 Guitar Tabs

Daddy Cool - Eagle Rock 2 chords, tabs, tablatures, lyrics

Guitar lessons | Add/correct | Request | Top 50 tabs Artists:  A B C D E F G H I J K L M N O P Q R S T U V W X Y Z 0-9

Eagle Rock 2 Guitar Tabs – Daddy Cool

CD, Sheet music, Poster

Do you like Eagle Rock 2? Share with your friends now
Tabs
This is a really awesome tab to a really awesome song. I tabbed it so you can play on
your own around a camp fire and the parents can all sing along :)
It is easy to play please enjoy this great aussie classic.

CHORDS USED-
A  : X03330
G  : 320003
G/A: 300003
G/B: X20003
G/C: 330003
D  : XX0232
E  : 022100

e|-----0----------0--|
B|-----------2-------|
G|-------------------|
D|-------------------|
A|--0-----0----0--0--|
E|-------------------|

e|----------------|---------------------0--|
B|----3-----0-----|--2-------2-------------|
G|-------2--------|-----2----------2-------|
D|----------------|------------------------|
A|----0--0-----0--|--0-----0----0-----0-0--|
E|----------------|------------------------|

e|----------------|---------------------0--|----------------|
B|----3-----0-----|--2-------2-------------|----3-----0-----|
G|-------2--------|-----2----------2-------|-------2--------|
D|----------------|------------------------|----------------|
A|----0--0-----0--|--0-----0----0-----0-0--|----0--0-----0--|
E|----------------|------------------------|----------------|

e|------------------------|--------------------------|-Back---0----------0-|
B|------------------------|--------------------------|-To-----------2------|
G|2--2-----2-----2-----0--|-h1--1-----1-----1-----0h2|-Start---------------|
D|------------------------|--------------------------|---------------------|
A|0-----0-----0-----0--0--|--------0-----0-----0--0--|-----------0----0--0-|
E|------------------------|--------------------------|---------------------|


Play The tab above once as intro

Verse (tab played 4 times):
Now listen,
Oh we're steppin' out.
I'm gonna turn around,
Gonna turn around once and we'll do the Eagle Rock.
Oh momma!
Oh you're rockin' well!
Hmm yeah you do it so well,
well we do it so well when we do the Eagle Rock
Now momma,
Yeah you're rockin' fine!
Why don't you give me a sign?
Hmm just give me a sign and we'll do the Eagle Rock.

Chorus:
A           A                      G       G/A
Hey Hey Hey good old Eagle Rock's here to stay,
G/B      G/C             D
I'm just crazy 'bout the way we move,
A         E     A
Doin' the Eagle Rock.
A           A                  G        G/A
Oh-oh-oh come on fast, you can come on slow
G/B      G/C             D
I'm just crazy 'bout the way we move,
A         E     A
Doin' the Eagle Rock.

Verse (tab played twice):
Go momma!
Well you're rockin' fine!
Why don't you give me a sign?
Just gotta give me a sign and we'll do the Eagle Rock.
Oh baby!
Well I feel so free!
Hmm what you do to me!
What you do to me when we do the Eagle Rock.

Chorus:
A                                 G
Hey Hey Hey good old Eagle Rock's here to stay,
G/B      G/C             D
I'm just crazy 'bout the way we move,
A         E     A
Doin' the Eagle Rock.
A           A                  G        G/A
Oh-oh-oh come on fast, you can come on slow
G/B      G/C             D
I'm just crazy 'bout the way we move,
A         E     A
Doin' the Eagle Rock.

PLAY tab ONCE OR TWICE AS SOLO

Verse (Tab played once there is a G thrown in as well when he sings "out"):
Now listen,
More we're steppin' out.
Yeah, gonna turn around,
Gonna turn around once and we'll do the Eagle Rock.

Chorus:
A           A                      G       G/A
Hey Hey Hey good old Eagle Rock's here to stay,
G/B      G/C             D
I'm just crazy 'bout the way we move,
A         E     A
Doin' the Eagle Rock.
A           A                  G        G/A
Oh-oh-oh come on fast, you can come on slow
G/B      G/C             D
I'm just crazy 'bout the way we move,
A         E     A
Doin' the Eagle Rock.

A         E     A
Doin the Eagle Rock.
A         E     A
Doin the Eagle Rock.
A         E     A
Doin the Eagle Rock.





Comments


Popular Daddy Cool tabs & chords
Come Back Again Chords
Eagle Rock Chords
Eagle Rock Tabs
Eagle Rock Tabs
Eagle Rock (Intro) Tabs
Eagle Rock 1 Tabs
Eagle Rock Intro 1 Tabs
Lollypop Tabs
Come Back Again Ukulele
Eagle Rock Ukulele


Song lyrics



↑ Back to top | Tablatures and chords are parodies/interpretations of the original songs. You may use it for private study, scholarship, research or language learning purposes only
© 2014 AZChords.com Contact us | Privacy policy | DMCA | Add/correct tabs | Request tabs | Top 50 tabs