>
 >
Eagle Rock

Eagle Rock Guitar Tabs

Daddy Cool - Eagle  Rock chords, tabs, tablatures, lyrics

Guitar lessons | Add/correct | Request | Top 50 tabs Artists:  A B C D E F G H I J K L M N O P Q R S T U V W X Y Z 0-9

Eagle Rock Guitar Tabs – Daddy Cool

CD, Sheet music, Poster

Do you like Eagle Rock? Share with your friends now
Tabs
----------------------------------------------------------------------------
                             Eagle Rock - Daddy Cool
----------------------------------------------------------------------------

I was looking for a tab of this song and couldn't find a decent one so i thought i'd tab 
properly. The idea with the verse is to just keep the open A ringing throughout the riff.

Tuning: Standard

Verse: During the verse you hold the 'A' chord shape for most of the riff
e|---0-------0---------------------0-----------------------0-----------------|
B|-------2-----3---0---2-----2-------3---0----2------2-------3---0-----------|
G|---------------2-------2-----2-------2---------2-----2-------2-----0h2-2---|
D|-------------------------2-----2-----------------2-----2-------------------|
A|-0-0-0---0-0-0-0---0-0---0-0---0-0-0-0----0-0----0-0---0-0-0-0---0---0---0-|
E|---------------------------------------------------------------------------|

e|-------------------------|
B|-------------------------|
G|-2---2---0h1-1---1---1---|  x3
D|-------------------------|
A|---0---0-----------------|
E|-----------0---0---0---0-|

Corus: Chord Progression; A G F# D A E
     A      A      G      F#     D      A      E
e|-000000-000000-000000-222222-222222-000000-000000-|
B|-222222-222222-333333-222222-333333-222222-000000-|
G|-222222-222222-000000-333333-222222-222222-111111-|  x2
D|-222222-222222-000000-444444-000000-222222-222222-|
A|-000000-000000-222222-444444-000000-000000-222222-|
E|---------------333333-222222---------------000000-|

Verse:
e|---0-------0---------------------0-----------------------0-----------------|
B|-------2-----3---0---2-----2-------3---0----2------2-------3---0-----------|
G|---------------2-------2-----2-------2---------2-----2-------2-----0h2-2---|
D|-------------------------2-----2-----------------2-----2-------------------|
A|-0-0-0---0-0-0-0---0-0---0-0---0-0-0-0----0-0----0-0---0-0-0-0---0---0---0-|
E|---------------------------------------------------------------------------|

e|-------------------------|
B|-------------------------|
G|-2---2---0h1-1---1---1---|  x2
D|-------------------------|
A|---0---0-----------------|
E|-----------0---0---0---0-|

Corus:
     A      A      G      F#     D      A      E
e|-000000-000000-000000-222222-222222-000000-000000-|
B|-222222-222222-333333-222222-333333-222222-000000-|
G|-222222-222222-000000-333333-222222-222222-111111-|  x2
D|-222222-222222-000000-444444-000000-222222-222222-|
A|-000000-000000-222222-444444-000000-000000-222222-|
E|---------------333333-222222---------------000000-|

Verse:
e|---0-------0---------------------0-----------------------0-----------------|
B|-------2-----3---0---2-----2-------3---0----2------2-------3---0-----------|
G|---------------2-------2-----2-------2---------2-----2-------2-----0h2-2---|
D|-------------------------2-----2-----------------2-----2-------------------|
A|-0-0-0---0-0-0-0---0-0---0-0---0-0-0-0----0-0----0-0---0-0-0-0---0---0---0-|
E|---------------------------------------------------------------------------|

e|-------------------------|
B|-------------------------|
G|-2---2---0h1-1---1---1---|  x2
D|-------------------------|
A|---0---0-----------------|
E|-----------0---0---0---0-|

Solo:
e|-------12-|       e|-------------------------------------------------|
B|-12h14----|       B|-14-14-14-14-14-14-14-14-------------------------|
G|----------| x23   G|-14-14-14-14-14-14-14-14-14-14-14-14-14-14-14-14-| x1
D|----------|       D|-12-12-12-12-12-12-12-12-14-14-14-14-14-14-14-14-|
A|----------|       A|-------------------------12-12-12-12-12-12-12-12-|
E|----------|       E|-------------------------------------------------|

Verse:                                   G      F#     D      A      E
e|------------0------------------------000000-222222-222222-000000-000000---|
B|-2-----2-------3---0----2------2-----333333-222222-333333-222222-000000---|
G|---2-----2-------2---------2-----2---000000-333333-222222-222222-111111---|
D|-----2-----2-----------------2-----2-000000-444444-000000-222222-222222---|
A|-0---0-0---0-0-0-0----0-0----0-0---0-222222-444444-000000-000000-222222---|
e|-------------0-----------------------333333-222222---------------000000---|

Corus:
     A      A      G      F#     D      A      E
e|-000000-000000-000000-222222-222222-000000-000000-|
B|-222222-222222-333333-222222-333333-222222-000000-|
G|-222222-222222-000000-333333-222222-222222-111111-|  x2
D|-222222-222222-000000-444444-000000-222222-222222-|
A|-000000-000000-222222-444444-000000-000000-222222-|
E|---------------333333-222222---------------000000-|

     A      E      A      E      A      E
e|-000000-000000-000000-000000-000000-000000-|
B|-222222-000000-222222-000000-222222-000000-|
G|-222222-111111-222222-111111-222222-111111-|
D|-222222-222222-222222-222222-222222-222222-|
A|-000000-222222-000000-222222-000000-222222-|
E|--------000000--------000000--------000000-|

Solo:
e|-------12-|
B|-12h14----|
G|----------| x4
D|----------|
A|----------|
E|----------|


| /  slide up
| \  slide down
| h  hammer-on
| p  pull-off
| ~  vibrato
| +  harmonic
| x  Mute note





Comments


Popular Daddy Cool tabs & chords
Come Back Again Chords
Eagle Rock Chords
Eagle Rock Tabs
Eagle Rock (Intro) Tabs
Eagle Rock 1 Tabs
Eagle Rock 2 Tabs
Eagle Rock Intro 1 Tabs
Lollypop Tabs
Come Back Again Ukulele
Eagle Rock Ukulele


Song lyrics



↑ Back to top | Tablatures and chords are parodies/interpretations of the original songs. You may use it for private study, scholarship, research or language learning purposes only
© 2014 AZChords.com Contact us | Privacy policy | DMCA | Add/correct tabs | Request tabs | Top 50 tabs