» » »

Dada, Dizz Knee Land Tabs (ver.3)

Artists:  A B C D E F G H I J K L M N O P Q R S T U V W X Y Z # 

Dizz Knee Land Tabs (ver.3)

Dada Tabs
 Rating:
4.3/5 (6 votes)
Dizz Knee Land lessons Tabs too difficult? Try these video lessons and learn fast
1
                
Additions and alternate voicings to previous tabs from


Intro Riff 1
--------------------------------------------------------------------------|
--------------------------------------------------------------------------|
12/14--14--14--14h16--14--14--14--14--11h12--12--12--12--12--12--11--9--7-|
-0--0---0---0---0--0---0---0---0---0--0--0---0---0---0---0---0---0---0--0-|
--------------------------------------------------------------------------|
--------------------------------------------------------------------------|

-----------------------------------------------------------------|
-----------------------------------------------------------------|
5h7---7---7---7---7--7--7--7---2/4---4---4---4---4---4---2--0--2-|
0-0---0---0---0---0--0--0--0---0-0---0---0---0---0---0---0--0--0-|
-----------------------------------------------------------------|
-----------------------------------------------------------------|


Intro Riff 2
--------------------------------------------------------------------------|
---------------------------------------------15--15--15--15---------------|
12/14--14--14--14h16--14--14--14--14--11h12--12--12--12--12--12--11--9--7-|
-0--0---0---0---0--0---0---0---0---0--0--0---0---0---0---0---0---0---0--0-|
--------------------------------------------------------------------------|
--------------------------------------------------------------------------|

-----------------------------------------------------------------|
-----------------------------------------------------------------|
5h7---7---7---7---7--7--7--7---2/4---4---4---4---4---4---2--0--2-|
0-0---0---0---0---0--0--0--0---0-0---0---0---0---0---0---0--0--0-|
-----------------------------------------------------------------|
-----------------------------------------------------------------|

Intro Riff 3
--------------------------------------------------------------------------|
--------------------15-----------------------15--15--15--15---------------|
12/14--14--14--14h16--14--14--14--14--11h12--12--12--12--12--12--11--9--7-|
-0--0---0---0---0--0---0---0---0---0--0--0---0---0---0---0---0---0---0--0-|
--------------------------------------------------------------------------|
--------------------------------------------------------------------------|

---------------------- 5--5----------------------------------------|
-----------------------6--6----------------------------------------|
5h7---7---7---7---7--7--7--7---2/4---4---4---4---4---4---2--0--2---|
0-0---0---0---0---0--0--0--0---0-0---0---0---0---0---0---0--0--0---|
-------------------------------------------------------------------|
-------------------------------------------------------------------|

Funky Part (Let the muted D ring slightly)
-----------------------------------------------------------------|
-8-8-8-8-8--8--8--8--8---6-6-6-6-6--6--6--6--6-------------------|
-7-7-7-7-6--6--7--6--6---5-5-5-5-4--4--5--4--4-------------------|
-X-X-X-X-X--X--X--X--X---X-X-X-X-X--X--X--X--X-------------------|
-7-7-7-7-7--7--7--7--7---5-5-5-5-5--5--5--5--5-------------------|
-----------------------------------------------------------------|

-----------------------------------------------------------------|
-8-8-8-8-8--8--8--8--8---6-6-6-6-6--6--6--6--6-------------------|
-7-7-7-7-6--6--7--6--6---5-5-5-5-4--4--5--4--4-------------------|
-X-X-X-X-X--X--X--X--X---X-X-X-X-X--X--X--X--X-------------------|
-7-7-7-7-7--7--7--7--7---5-5-5-5-5--5--5--5--5-------------------|
-----------------------------------------------------------------|

D/G Verse Riff
Kicked my ass outta school....
-----------------------------------------------------------------|
-3----------5---5------------------------------------------------|
-2-------2s5-5s4-4s2---------------------------------------------|
-0---------------------------------------------------------------|
-----------------------------------------------------------------|
-----------------------------------------------------------------|

Verse 3 Bridge

-2-----3---------------------------------------------------------|
-3-----3-----3-3-3-3-3-3-3---------------------3-----------------|
-2-----0-----2-2-2-4-2-4-2----0-0-0-0-0-0-0-0--2-----------------|
-0-----0-----0-0-0-0-0-0-0----5-5-5-5-5-4-2-0--0-----------------|
-------2---------------------------------------------------------|
-------3---------------------------------------------------------|

Lead coming soon..
            
Submit corrections

comments powered by Disqus
↑ Back to top | Dada Tabs for Dizz Knee Land. Lyrics for acoustic guitar and electric guitar. 1 Tablatures and chords are parodies/interpretations of the original songs. You may use it for private study, scholarship, research or language learning purposes only