>
 >
Dizz Knee Land

Dizz Knee Land Guitar Tabs

Dada - Dizz Knee Land chords, tabs, tablatures, lyrics

Guitar lessons | Add/correct | Request | Top 50 tabs Artists:  A B C D E F G H I J K L M N O P Q R S T U V W X Y Z 0-9

Dizz Knee Land Guitar Tabs – Dada

CD, Sheet music, Poster

Do you like Dizz Knee Land? Share with your friends now
TabsTabs v2Tabs v3

Additions and alternate voicings to previous tabs from


Intro Riff 1
--------------------------------------------------------------------------|
--------------------------------------------------------------------------|
12/14--14--14--14h16--14--14--14--14--11h12--12--12--12--12--12--11--9--7-|
-0--0---0---0---0--0---0---0---0---0--0--0---0---0---0---0---0---0---0--0-|
--------------------------------------------------------------------------|
--------------------------------------------------------------------------|

-----------------------------------------------------------------|
-----------------------------------------------------------------|
5h7---7---7---7---7--7--7--7---2/4---4---4---4---4---4---2--0--2-|
0-0---0---0---0---0--0--0--0---0-0---0---0---0---0---0---0--0--0-|
-----------------------------------------------------------------|
-----------------------------------------------------------------|


Intro Riff 2
--------------------------------------------------------------------------|
---------------------------------------------15--15--15--15---------------|
12/14--14--14--14h16--14--14--14--14--11h12--12--12--12--12--12--11--9--7-|
-0--0---0---0---0--0---0---0---0---0--0--0---0---0---0---0---0---0---0--0-|
--------------------------------------------------------------------------|
--------------------------------------------------------------------------|

-----------------------------------------------------------------|
-----------------------------------------------------------------|
5h7---7---7---7---7--7--7--7---2h4---4---4---4---4---4---2--0--2-|
0-0---0---0---0---0--0--0--0---0-0---0---0---0---0---0---0--0--0-|
-----------------------------------------------------------------|
-----------------------------------------------------------------|

Intro Riff 3
--------------------------------------------------------------------------|
--------------------15-----------------------15--15--15--15---------------|
12/14--14--14--14h16--14--14--14--14--11h12--12--12--12--12--12--11--9--7-|
-0--0---0---0---0--0---0---0---0---0--0--0---0---0---0---0---0---0---0--0-|
--------------------------------------------------------------------------|
--------------------------------------------------------------------------|

---------------------- 5--5----------------------------------------|
-----------------------6--6----------------------------------------|
5h7---7---7---7---7--7--7--7---2h4---4---4---4---4---4---2--0--2---|
0-0---0---0---0---0--0--0--0---0-0---0---0---0---0---0---0--0--0---|
-------------------------------------------------------------------|
-------------------------------------------------------------------|

Funky Part (Let the muted D ring slightly)
-----------------------------------------------------------------|
-8-8-8-8-8--8--8--8--8---6-6-6-6-6--6--6--6--6-------------------|
-7-7-7-7-6--6--7--6--6---5-5-5-5-4--4--5--4--4-------------------|
-X-X-X-X-X--X--X--X--X---X-X-X-X-X--X--X--X--X-------------------|
-7-7-7-7-7--7--7--7--7---5-5-5-5-5--5--5--5--5-------------------|
-----------------------------------------------------------------|

-----------------------------------------------------------------|
-8-8-8-8-8--8--8--8--8---6-6-6-6-6--6--6--6--6-------------------|
-7-7-7-7-6--6--7--6--6---5-5-5-5-4--4--5--4--4-------------------|
-X-X-X-X-X--X--X--X--X---X-X-X-X-X--X--X--X--X-------------------|
-7-7-7-7-7--7--7--7--7---5-5-5-5-5--5--5--5--5-------------------|
-----------------------------------------------------------------|

Break

-5----3-3-X-2-2--------------------------------------------------|
-5----3-3-X-3-3--------------------------------------------------|
-2----0-0-X-2-2--------------------------------------------------|
-3----0-0-X-0-0-----------3h5p3p0--------------------------------|
------2-------------0h3-5----------------------------------------|
------3---------------------------3-2----------------------------|

-5----3-3-X-2-2--------------------------------------------------|
-5----3-3-X-3-3--------------------------------------------------|
-2----0-0-X-2-2---------------2----------------------------------|
-3----0-0-X-0-0---------0-0h3-3-----4----------------------------|
------2-------------0h3---------0h3-5----------------------------|
------3----------------------------------------------------------|

-5----3-3-X-2-2--------------------------------------------------|
-5----3-3-X-3-3--------------------------------------------------|
-2----0-0-X-2-2--------------------------------------------------|
-3----0-0-X-0-0-----------3h5p3p0--------------------------------|
------2-------------0h3-5----------------------4-2-0-------------|
------3---------------------------3-2-1--------5-3-2-------------|

Alternate Verse Part

-2-----3---------------------------------------------------------|
-3-----3-----3-3-3-3-3-3-3---------------------3-----------------|
-2-----0-----2-2-2-4-2-4-2----0-0-0-0-0-0-0-0--2-----------------|
-0-----0-----0-0-0-0-0-0-0----5-5-5-5-5-4-2-0--0-----------------|
-------2---------------------------------------------------------|
-------3---------------------------------------------------------|

D/G Verse Riff
Kicked my ass outta school....3x
-----------------------------------------------3-----------------|
-3----------5---5------------------------------3-----------------|
-2-------2/5-5\4-4\2---------------------------0-----------------|
-0---------------------------------------------0-----------------|
-----------------------------------------------2-----------------|
-----------------------------------------------3-----------------|


Lead

-----------------------------------------------------------------|
-----------------------------------------------------------------|
-2h4p2-4b5b5----2h4p2--5b7b7--2-5r4-2----------------------------|
-------------------------------------3b3.5-----------------------|
-----------------------------------------------------------------|
-----------------------------------------------------------------|

-----------------------------------------------------------------|
--------------------------------------------3--6-----------------|
-2h4p2-4b5-4b5-4p2-4b5---4-p-2------5b7-5b7------5--/12----------|
-------------------------------3---------------------------------|
-----------------------------------------------------------------|
-----------------------------------------------------------------|

------------------------------------------------------------------|
-10-10---10---10---10-10---10----10----10---------10--12p10-------|
-10-10---10---10---10-10---10-10-10----10--12b14------------12b14-|
-------12--12---12------12----10----12----------------------------|
------------------------------------------------------------------|
------------------------------------------------------------------|

----10-----10-----13b15-13------10------------10-----------------|
-10----13-----10---------------------------10-----13--10----10---|
-------------------------------------12b14---------------12---10-|
-----------------------------------------------------------------|
-----------------------------------------------------------------|
-----------------------------------------------------------------|

-----------------15-13-------------------------------------------|
-----10--13p10---------15-13-------------------------------------|
-/12-------------------------12\10----12---10h11-----------------|
-----------------------------------12----12------12-10-----------|
-------------------------------------------------------10-8------|
-----------------------------------------------------------------|

-------------------15-------------20-19\17-----------------------|
----------------13-------15-17/19--------------------------------|
-------------12------14------------------------------------------|
------12-/14-----------------------------------------------------|
---10------------------------------------------------------------|
-8---------------------------------------------------------------|

The end of this section is just the down strokes to save space

-17-15-14---------------------------------------------13-13-13-13-|
----------15-------------------10--------/15-15-15-15-15-15-15-15-|
-------------14\12-11h12p11----10-12-----/14-14-14-14-------------|
----------------------------12------------------------------------|
------------------------------------------------------------------|
------------------------------------------------------------------|

There is a definite rythym to this part with a stop and turn-around
around the 8th beat.

    ^     ^     ^     ^      ^     ^    ^     ^
-14-14-14-14-14-14-14-14-14-14-14-14-14-14-X-14-------------------|
-15-15-15-15-15-15-15-15-15-15-15-15-15-15-X-15-------------------|
------------------------------------------------------------------|
------------------------------------------------------------------|
------------------------------------------------------------------|
------------------------------------------------------------------|

-13-13-13-13-13-13-13-13-13-13-13-13-13-13-13-13-----------------|
-15-15-15-15-15-15-15-15-15-15-15-15-15-15-15-15-----------------|
-----------------------------------------------------------------|
-----------------------------------------------------------------|
-----------------------------------------------------------------|
-----------------------------------------------------------------|

-14-14-14-14-14-14-14-14-14-14-14-14-14-14-14-14-----------------|
-15-15-15-15-15-15-15-15-15-15-15-15-15-15-15-15-----------------|
-----------------------------------------------------------------|
-----------------------------------------------------------------|
-----------------------------------------------------------------|
-----------------------------------------------------------------|

-13-13-13-13-13-13-13-13-13-13-13-13-13-13-13-13-----------------|
-15-15-15-15-15-15-15-15-15-15-15-15-15-15-15-15-----------------|
-----------------------------------------------------------------|
-----------------------------------------------------------------|
-----------------------------------------------------------------|
-----------------------------------------------------------------|

                                           Rake
-13-13-13-13-13-13-13-13-13-14-----14-------X--------------------|
-15-15-15-15-15-15-15-15-15-15-----15-------X--------------------|
--------------------------------------------X--------------------|
--------------------------------------------X--------------------|
-----------------------------------------------------------------|
-----------------------------------------------------------------|

Bend and release this part (this all feel so I didn't tab it out)
-----------------------------------------------------------------|
--13-13-13-------------------------------------------------------|
--12b14r13-------------------------------------------------------|
-----------------------------------------------------------------|
-----------------------------------------------------------------|
-----------------------------------------------------------------|

Play this out of the bending feel part above
--------b15r13----------10---------------------------------------|
---------------------10---13-10----------------------------------|
--14r12--------12b14-----------12-10----10h12p10-----------------|
-------------------------------------12---------12-10------------|
------------------------------------------------------12---------|
-----------------------------------------------------------------|

-----------------------------------------------------------------|
-----------------------------------------------------------------|
-----------------------------------------------------------------|
-10h12p10--------------------------------------------------------|
----------12-10\8------------------------------------------------|
------------------10\--------------------------------------------|





Comments


Popular Dada tabs & chords
All I Am Chords
Here Today, Gone Tomorrow Chords
S F Bar 69 Chords
All I Am Tabs
Dim Tabs
Dim 1 Tabs
S F Bar 69 Tabs
Surround Tabs
Surround 1 Tabs
All I Am Ukulele


Song lyrics



↑ Back to top | Tablatures and chords are parodies/interpretations of the original songs. You may use it for private study, scholarship, research or language learning purposes only
© 2014 AZChords.com Contact us | Privacy policy | DMCA | Add/correct tabs | Request tabs | Top 50 tabs