>
 >
Chestermans Valley

Chestermans Valley Guitar Tabs

Current Swell - Chestermans Valley chords, tabs, tablatures, lyrics

Guitar lessons | Add/correct | Request | Top 50 tabs Artists:  A B C D E F G H I J K L M N O P Q R S T U V W X Y Z 0-9

Chestermans Valley Guitar Tabs – Current Swell

CD, Sheet music, Poster

Do you like Chestermans Valley? Share with your friends now
TabsTabs v2
\-------------------------------------------------------------------------------
                             Chesterman's Valley - Current Swell
-------------------------------------------------------------------------------

Tuning:EADGBE

     Intro
e|----------------------------------------------------------------------------|
B|----------------------------------------------------------------------------|
G|----------------------------------------------------------------------------|
D|-4--444-------2------4-----------2--------------4------2------2---4-2-------|
A|---------2h4-----2------222-2h4------444--4\6-------2-----2h4----------4-2--|
E|----------------------------------------------------------------------------|


e|-----2----------------------------7--------------------------2---------------|
B|-----2---------------------------  7--------------------------2--------------|
G|---- 3----------------------------8--------------------------3---------------|
D|---- 4-----------2--4-2-----------9--------2--4-2------------4--------2------|
A|---- 4------2h4---------4-2-------9----2h4--------4-2--------4----2h4--------|
E|---- 2----------------------------7--------------------------2---------------|


e|----------------7-----------------------------------------------------------|
B|----------------7-----------------------------------------------------------|
G|----------------8-----------------------------------------------------------|
D|--4-2-----------9-----------------------------------------------------------|
A|-------4-2------9----2h4----2h4---------------------------------------------|
E|----------------7---------5------5------------------------------------------|

 Opening

  play 7x's
e|-------------- 2----------------------7-------------------------------------|
B|-------------- 2----------------------7-------------------------------------|
G|--------------3----------------------8--------------------------------------|
D|--------------4----------------------9--------------------------------------|
A|--------------4----------------------9--------------------------------------|
E|--------------2----------------------7--------------------------------------|

Bridge  Play 2x's


e|------2--------- 9--------- 7----------5--------------------2---------9-------|
B|-----  2--------- 9--------- 7----------5--------------------2---------9------|
G|----- 3---------10---------8----------6--------------------3---------8--------|
D|----- 4---------11---------9----------7--------------------4---------7--------|
A|----- 4--------   11---------9----------7--------------------4---------7------|
E|----- 2---------  9--------- 7----------5--------------------2---------9------|


e|----7-----------------------------------------------------------------------|
B|----7-----------------------------------------------------------------------|
G|----8-----------------------------------------------------------------------|
D|----9-----------------------------------------------------------------------|
A|----9-----------------------------------------------------------------------|
E|----7-----------------------------------------------------------------------|

Main Riff 7x's


e|----2-----------7------------5------------7---------------------------------|
B|----2-----------7------------5------------7---------------------------------|
G|----3-----------8------------6------------8---------------------------------|
D|----4-----------9------------7------------9---------------------------------|
A|----4-----------9------------7------------9---------------------------------|
E|----2-----------7------------5------------7---------------------------------|
                                                  Outro


e|--------------------------------2-------------------------7------------- 5------|
B|--------------------------------2-----------2--4-2--------7------------- 5------|
G|--play bridge 2x's-----------------3-------------------2h4----8-----4-2----  6--|
D|-------------------------------4--------------------------9-------------7-------|
A|-------------------------------4--------------------------9-------------7-------|
E|-------------------------------2--------------------------7-------------5-------|


e|----5---------6---------7---------------------------------------------------|
B|----5---------6---------7---------------------------------------------------|
G|----6---------7---------8---------------------------------------------------|
D|----7---------8---------9---------------------------------------------------|
A|----7---------8---------9-----------7h9-------------------------------------|
E|----5---------6---------7-----7h9-------------------------------------------|

Main Riff until End

Bar Chords:

 F# Major,        B Major,        A Major,      C# Major.
      2                7              5                9
      2                7              5                9
      3                8              6               10
      4                9              7               11
      4                9              7               11
      2                7              5                9

| /  slide up
| \  slide down
| h  hammer-on
| p  pull-off
| ~  vibrato
| +  harmonic
| x  Mute note
===============================================================================





Comments


Popular Current Swell tabs & chords
Short Stories Chords
Young And Able 1 Chords
Brads Song Tabs
For The Land Tabs
Honest Man Tabs
Inescapable Dome Tabs
Long Time Ago Tabs
I Want A Bird Ukulele
Officer Down Ukulele
Stomach Ukulele


Song lyrics



↑ Back to top | Tablatures and chords are parodies/interpretations of the original songs. You may use it for private study, scholarship, research or language learning purposes only
© 2014 AZChords.com Contact us | Privacy policy | DMCA | Add/correct tabs | Request tabs | Top 50 tabs