» » »

Current Swell, Honest Man Tabs (ver.1)

Artists:  A B C D E F G H I J K L M N O P Q R S T U V W X Y Z # 

Honest Man Tabs (ver.1)

Current Swell Tabs
 Rating:
4/5 (4 votes)
Honest Man lessons Tabs too difficult? Try these video lessons and learn fast
1
                
Intro
e----------------------------------------------------------|
b----------------------------------------------------------|
g----------------0-----------------------------------------|
d------------0h2---2-0-----------------&repeat-------------|
a-0-0-0-0-0------------3-3-3-3-3-3-3-3---------------------|
e----------------------------------------------------------|

part 1
  A5(x5)          C(x8) G(x5)           C(x8)
e----------------------------------------------------------|
b----------------------------------------------------------|
g-2-2-2-----0-----0-0-0-----------0-----0-0-0--------------|
d-2-2-2-0h2---2-0-2-2-2-5-5-5-0h2---2-0-2-2-2--------------|
a-0-0-0-----------3-3-3-5-5-5-----------3-3-3-3s5-55-5-----|
e-----------------------3-3-3-----------------0-0-00-0-----|


part 2
Verse
   Am     C       G       C

e----0-------0--------1-------0-----------------------------|
b-----------------------------------------------------------|
g-2-------0----------------0--------------------------------|
d-2-------2--------0-------2--------------------------------|
a-0-------3--------2-------3--------------------------------|
e------------------3----------------------------------------|

part 3
And he said, it will only take me..
  F     C     G     Am
e-1-1-1-0-0-0-1-1-1-0-0-0----------------------------------|
b-1-1-1-1-1-1-0-0-0-1-1-1----------------------------------|
g-2-2-2-0-0-0-0-0-0-2-2-2----------------------------------|
d-3-3-3-2-2-2-0-0-0-2-2-2----------------------------------|
a-3-3-3-3-3-3-2-2-2-0-0-0----------------------------------|
e-1-1-1-------3-3-3----------------------------------------|

part 1
LA da di da da..
  A5    C     G     C
e----------------------------------------------------------|
b----------------------------------------------------------|
g-2-2-2-0-0-0-------0-0-0----------------------------------|
d-2-2-2-2-2-2-5-5-5-2-2-2---0------------------------------|
a-0-0-0-3-3-3-5-5-5-3-3-3---3s5-55-5-----------------------|
e-------------3-3-3---------0-0-00-0-----------------------|

part 2
Verse
   Am     C       G       C

e----0-------0--------1-------0-----------------------------|
b-----------------------------------------------------------|
g-2-------0----------------0--------------------------------|
d-2-------2--------0-------2--------------------------------|
a-0-------3--------2-------3--------------------------------|
e------------------3----------------------------------------|

part 3
And he said, it will only take me..
  F     C     G     Am
e-1-1-1-0-0-0-1-1-1-0-0-0----------------------------------|
b-1-1-1-1-1-1-0-0-0-1-1-1----------------------------------|
g-2-2-2-0-0-0-0-0-0-2-2-2----------------------------------|
d-3-3-3-2-2-2-0-0-0-2-2-2----------------------------------|
a-3-3-3-3-3-3-2-2-2-0-0-0----------------------------------|
e-1-1-1-------3-3-3----------------------------------------|

part 3 again!
LA da di da da
  F     C     G     Am
e-1-1-1-0-0-0-1-1-1-0-0-0----------------------------------|
b-1-1-1-1-1-1-0-0-0-1-1-1----------------------------------|
g-2-2-2-0-0-0-0-0-0-2-2-2----------------------------------|
d-3-3-3-2-2-2-0-0-0-2-2-2----------------------------------|
a-3-3-3-3-3-3-2-2-2-0-0-0----------------------------------|
e-1-1-1-------3-3-3----------------------------------------|

Solo (played with a slide over part 1)
e-------------------------------------------------|
b-------------------------------------------------|
g-s14-12-9s12s9---------------s7--5s7s9--9-7-5----|
d--------------12s14-12s10~~----------------------|
a-------------------------------------------------|
e-------------------------------------------------|

e------------------------------------------------------|
b------------------------------------------------------|
g-s14-12-9s12s9--------------s7--5s7s9--9-7-5--0-s2~~~-|
d--------------12s14-12s10~~---------------------------|
a------------------------------------------------------|
e------------------------------------------------------|

Pretty close to the real thing.

Enjoy.
            
Submit corrections

comments powered by Disqus
↑ Back to top | Current Swell Tabs for Honest Man. Lyrics for acoustic guitar and electric guitar. 1 Tablatures and chords are parodies/interpretations of the original songs. You may use it for private study, scholarship, research or language learning purposes only