» » »

Close To Me Bass tabs (ver.1)

Artists:  A B C D E F G H I J K L M N O P Q R S T U V W X Y Z # 

Close To Me Bass tabs (ver.1)

Cure
Rating:
0/5 (0 votes)

Hard to play? Try these video lessons and learn fast.
                Album(s): Stiring At the sea the singles
Bassist: Simon Gallup
Tuneing: Standard E A D G

Part One
G|--------------------------------------------------------------------|
D|----------------111-------------------------------------------------|
A|---2--2--2--22------2--2--2--22--444--------------222---------------|
E|-------------------------------------4--4--4--44-----2--2--2--22-000|

Part Two

G|--------------------------------------------------------------------|
D|----------------111------------111--------------111--------------111|
A|-----------------------------------2--2--2--22---------2--2--2-22---|
E|---0--0--0--00------0--0--0--00-------------------------------------|


Part 1 - X8
Part 2 - X2
Part 1 - X4
Part 2 - X2
Part 1 - X4
            
Hard to play? Try these video lessons and learn fast. | Correct




comments powered by Disqus
↑ Back to top | Tablatures and chords are parodies/interpretations of the original songs. You may use it for private study, scholarship, research or language learning purposes only