» » »

Lovecats Bass tabs (ver.1)

Artists:  A B C D E F G H I J K L M N O P Q R S T U V W X Y Z # 

Lovecats Bass tabs (ver.1)

Cure
Rating:
0/5 (0 votes)

Tabs too difficult? Try these video lessons and learn fast.
                Album(s): Many!
Bassist: Simon Gallup
Tuneing: Standard E A D G

intro

G:------------------------------------------------- 
D:------------------------------------------------- 
A:-----0-----------------------0------------------- 
E:-0-3---------0-3-1-------0-3---------0-3-1------- 






G----------------|---------------|
D----------------|---------------|
A----7--5--3----|----5--3--2---|
E-5------------3-|-1----------3-|




G----------------|---------------------|
D-----------5----|-----------10\(or /)-|
A-3--5--7-----3-|-5--7--8-----------|
E----------------|---------------------|



G--------------|--------------------|
D----------9-\-|----------10\(& /)-|
A-0---6~------|-----7~------------|
E---------------|-1-----------------|

Bass solo
G:------------------------------------------------------------------- 
D:-------0-2-3-2---------------------------0-2-3-2------------------- 
A:-0-2-3---------3------0-2-3-2-3----0-2-3--------------0-2-3-2-0---- 
E:------------------1-3-----------3-----------------1-3-----------3-- 
            
Tabs too difficult? Try these video lessons and learn fast.




comments powered by Disqus
↑ Back to top | Tablatures and chords are parodies/interpretations of the original songs. You may use it for private study, scholarship, research or language learning purposes only