» » »

Cure, A Strange Day Bass tabs (ver.2)

Artists:  A B C D E F G H I J K L M N O P Q R S T U V W X Y Z # 

A Strange Day Bass tabs (ver.2)

Cure Tabs
Rating:
5/5 (1 vote)
A Strange Day lessons Tabs too difficult? Try these video lessons and learn fast
                -------------------------------------------------------------------------
			     A Stange Day - The Cure
-------------------------------------------------------------------------


Tuning:Standard EADG

Riff A
G|---------------------------------------------------------------------|
D|---------------------------------------------------------------------|
A|-----0-000-02--23202----------2323-----------------------------------|
E|---------------------3-333-33----------------------------------------|

Riff B
G|---------------------------------------------------------------------|
D|---------------------------------------------------------------------|
A|-----0-000-02--23202---------------232323----------------------------|
E|---------------------3-333------33---------------/151515151515-------|
				1.		2.
Riff C
G|---------------------------------------------------------------------|
D|---------------------------------------------------------------------|
A|--------------23202---------2323-------------------------------------|
E|-----1-111-11------3-333-33------------------------------------------|

Riff D
G|---------------------------------------------------------------------|
D|---------------------------------------------------------------------|
A|--------------2323----------23202------------------------------------|
E|-----0-000-00------1-111-11------------------------------------------|


Song structure: ABAB2 ABAA CCAB2 ABAA CCDDDD pause AB2AB2 ABAB

Notes: 1. After 4th D run hit A string open
       2. On last B riff, play only the first E string 3rd fret note

| /  slide up
| \  slide down
| h  hammer-on
| p  pull-off
| ~  vibrato
| +  harmonic
| x  Mute note
========================================================================
            

comments powered by Disqus
↑ Back to top | Cure Bass for A Strange Day. Lyrics for acoustic guitar and electric guitar. Tablatures and chords are parodies/interpretations of the original songs. You may use it for private study, scholarship, research or language learning purposes only