» » »

Cro-Mags, Show You No Mercy Tabs (ver.1)

Artists:  A B C D E F G H I J K L M N O P Q R S T U V W X Y Z # 

Show You No Mercy Tabs (ver.1)

Cro-Mags Tabs
Rating:
0/5 (0 votes)
Show You No Mercy lessons Tabs too difficult? Try these video lessons and learn fast
                

First two chords: hit one time, the third one begin demping
   Remember to demp only the third chord (9/7), do this 4x
   Then again hit the first two chords one time and begin demping on the
   third one (9/7), do this until the song ends...
   When you listen to the song you'll now how to do it!
e|--------------------------------------------------------------------------|
B|--------------------------------------------------------------------------|
G|--------------------------------------------------------------------------|
D|--------------------------------------------------------------------------|
A|---10--13--12--8--7--(4x)-------------------------------------------------|
E|----8--11--10--6--5-------------------------------------------------------|

e|--------------------------------------------------------------------------|
B|--------------------------------------------------------------------------|
G|--------------------------------------------------------------------------|
D|----9--11--12--7--5--7--12--11--12--9-------------------------------------|
A|----7---9--10--5--3--5--10---9--10--7-------------------------------------|
E|--------------------------------------------------------------------------|

e|--------------------------------------------------------------------------|
B|--------------------------------------------------------------------------|
G|--------------------------------------------------------------------------|
D|----9--11--12--7--5-----12--11--12--9-------------------------------------|
A|----7---9--10--5--3--7--10---9--10--7-------------------------------------|
E|---------------------5----------------------------------------------------|

e|--------------------------------------------------------------------------|
B|--------------------------------------------------------------------------|
G|--------------------------------------------------------------------------|
D|--------------------------------------------------------------------------|
A|----10--13--12--8--7--(4x)------------------------------------------------|
E|-----8--11--10--6--5------------------------------------------------------|

  After first time there is a very short silence then play 3 times
e|--------------------------------------------------------------------------|
B|--------------------------------------------------------------------------|
G|--------------------------------------------------------------------------|
D|-------------------12--10--9---10--9--7-----------------------------------|
A|-1:--2--------2:---10---8--7----8--7--5-----------------------------------|
E|-----0--------------------------------------------------------------------|

  First guitar plays 1, second guitar plays 2
e|--------------------------------------------------------------------------|
B|--------------------------------------------------------------------------|
G|--12--10--9---10--9--7----------------------------------------------------|
D|--10---8--7----8--7--5----------------------------------------------------|
A|--------------------------------------------------------------------------|
E|--------------------------------------------------------------------------|

  Same part but now with First and second guitar playing the same
e|--------------------------------------------------------------------------|
B|--------------------------------------------------------------------------|
G|--------------------------------------------------------------------------|
D|--7--10---9--7--10--(...)-------------------------------------------------|
A|--5---8---7--5---8--------------------------------------------------------|
E|--------------------------------------------------------------------------|
            

comments powered by Disqus
↑ Back to top | Cro-Mags Tabs for Show You No Mercy. Lyrics for acoustic guitar and electric guitar. Tablatures and chords are parodies/interpretations of the original songs. You may use it for private study, scholarship, research or language learning purposes only