» » »

Show You No Mercy Tabs (ver.2)

Artists:  A B C D E F G H I J K L M N O P Q R S T U V W X Y Z # 

Show You No Mercy Tabs (ver.2)

Cro-Mags
Rating:
0/5 (0 votes)

Tabs too difficult? Try these video lessons and learn fast.
                CRO-MAGS
Show You No Mercy


Tuning: Standard (I personally play it half-step down for a more crossover sound)

I saw the other version of this tab and it was somewhat confusing so I listened to the 
song and tabbed the song out in more detail.
Listen to the song for the exact timing.


~=held note
x=mute strum
p.m.=palm muted
^=slight bend

Enjoy!\m/(>_<)\m/

============================================================================
Verse (fast all the way through, only minor pause on the shifts)

e---------------------------------------------------------------------------|
B---------------------------------------------------------------------------|
G---------------------------------------------------------------------------|
D---------------------------------------------------------------------------|
A--10~~101010101010101010101010101010--13-12-1212121212--9-8-88888----------|
E--8~~~8-8-8-8-8-8-8-8-8-8-8-8-8-8-8---11-10-1010101010--7-6-66666----------|

Chorus (very fast, all shifts are slid to and played at the same beat)

e-------------------------------------------------------------------------------------------|
B-------------------------------------------------------------------------------------------|
G-------------------------------------------------------------------------------------------|
D--9~~999999-111111-121212-77-55555555555555555555-77777777-121212-111111-1212-99999999-----|
A--7~~777777-9-9-9--101010-55-33333333333333333333-55555555-101010-9-9-9--1010-77777777-----|
E-------------------------------------------------------------------------------------------|

Bridge (much slower, when bending only bend the D & G strings)


e---------------------------------------------------------------------------|
B---------------------------------------------------------------------------|
G--12-x-x-10-x-x-9~~999~9^9^--10-x-x-9-x-x-7~~7^^^--------------------------|
D--12-x-x-10-x-x-9~~999~9^9^--10-x-x-9-x-x-7~~7^^^--------------------------|
A--10-x-x-8--x-x-7~~777~7~7~--8--x-x-7-x-x-5~~5~~~--------------------------|
E---------------------------------------------------------------------------|

Outro (longer pauses on first 2 notes, simple mid-tempo rhythm for the muted riff)

e---------------------------------------------------------------------------|
B---------------------------------------------------------------------------|
G---------------------------------------------------------------------------|
D--9~~~~7~~~~9~~99999-9~~7~~10~~10101010------------------------------------|
A--7~~~~5~~~~7~~77777-7~~5~~8-~~8-8-8-8-------------------------------------|
E---------------------------------------------------------------------------|
                (p.m-)
================================================================================
Song Structure

Verse x3
Chorus x2
Verse x2 (listen to the song for help because there is a stop/start part in there)
Bridge x2
Outro slow part x1, then muted riff part x4, slow part x1, then muted riff x4+ until 
fade out/end

P.S This is my first tab so if I f**ked up or you have any questions or comments feel 
            
Tabs too difficult? Try these video lessons and learn fast.


comments powered by Disqus
↑ Back to top | Tablatures and chords are parodies/interpretations of the original songs. You may use it for private study, scholarship, research or language learning purposes only