» » »

Cradle Of Filth, Thank God For The Suffering Bass tabs (ver.2)

Artists:  A B C D E F G H I J K L M N O P Q R S T U V W X Y Z # 

Thank God For The Suffering Bass tabs (ver.2)

Cradle Of Filth Tabs
Rating:
0/5 (0 votes)
Thank God For The Suffering lessons Tabs too difficult? Try these video lessons and learn fast
                Thank God for the Suffering
Cradle of Filth
***ation and a Day


Delay at the Start

Riff 1
D#|----------------------------------------------------------------------|
A#|---------------------------------------------------------------------*| x4
F |---------------------------------------------------------------------*|
C |-5-5-5-5-5-5-5-5-5-5-5-5-5-5--7-7--8-8-8-8-8-8-8-8--7-7-7-7--3-3-3-3--|

Riff 2
|------------------------------|
|-----------------------------*| x2
|-----------------------------*|
|--5-8-7-7----5-8-7-4---4-3-3--|

Riff 3                                   first ending
|-------------------------------------|-------------------------------------|
|-------------------------------------|-------------------------------------|
|-------3333-222222222222222222222222-|------3333-2222----------------------|
|--5555-------------------------------|-5555-----------44444444444444444444-|
                                         second ending
                                      |-------------------------------------|
                                      |-------------------------------------|
                                      |------3333-2222----------------------|
                                      |-5555-----------444444444444-3-3-----|

Riff 1 - x2

bridge to Riff 2
|---------------------|
|---------------------|
|---------------------|
|-5-8-7-7-----5-8-7-4-|

Riff 2 - x1

Riff 3

Riff 4
|----------------------------------|--------------------------------
|*--------------------------------*|--------------------------------
|*-5-5555555555555555555555555555-*|--------------------------------
|----------------------------------|-6-6666666666666666666666666666-

-8-888888888888-9-99999-9-9999--10-1010101010101010101010101010101010101010101010-

-9-9999999999999999999999999999--8-8888888888888888888888888888-

---------------------------|
---------------------------|
-----------------------8-7-|
-3-333333333333-5-5555-----|

bridge to Riff 5
|-----------------------------|
|-----------------------------|
|-5-----------------------8-7-|
|-------1-----3-----5---------|

Riff 5
|-------------------------------------------------------------------------|
|------------------------------------------------------------------------*| x3
|-5555555555555555---------------------------------------------8888-7777-*|
|------------------1111111111111111-33333333333333333-55555555------------|

Bridge to Riff 6
|----------------------------------------------|
|----------------------------------------------|
|-777777-8-7-8888-55-88--77777777-8--10-9--5-8-|
|----------------------------------------------|

Riff 6                                    First ending
|---------------------------------------|-----------------------------------------|
|---------------------------------------|-----------------------------------------|
|-777777777777-88-77-88888888-5555-8888-|-7777777777777777-11111111111111-88888888|
|---------------------------------------|------------------(8 elevens ^^)---------|
                                          Second ending
                                        |------------------------------------------|
                                        |------------------------------------------|
                                        |777777777777-88-77-8888-10101010-9999-55-88
                                        |------------------------------------------|
                                          Third ending
                                        |-----------------------------------------|
                                        |-----------------------------------------|
                                        |7777777777777777-------------------------|
                                        |-----------------44444444-33333333-------|

Riff 2 - x2

Riff 3

Riff 7                              First Ending
|---------------------------------|---------------------------------|
|---------------------------------|---------------------------------|
|---------------------------------|-3-3-3-3-3-3-3-3-3-3-3-3---------|
|-5-5-5-5-5-5-5-5-5-5-5-5-5-5-5-5-|-------------------------3-3-3-3-|
                                    Second Ending
                                  |---------------------------------|
                                  |---------------------------------|
                                  |-3-3-3-3-3-3-3-3-2-2-2-----------|
                                  |-----------------------3-3-3-3-3-|

Riff 8
|------------------------------------------------------------------------|
|-----------------------------------------------------------------------*| x4
|-----------------------------------------------------------------------*|
|-8-8-8-8-8-8-8-8--7-7-7-7-7--753--333--5-5-5-5-5-5-5-5-5-5-5-5-5-5-7-7--|

bridge to riff 2

Riff 2

Riff 3 

Riff 4 - x2

End
            
Submit corrections

comments powered by Disqus
↑ Back to top | Cradle Of Filth Bass for Thank God For The Suffering. Lyrics for acoustic guitar and electric guitar. Tablatures and chords are parodies/interpretations of the original songs. You may use it for private study, scholarship, research or language learning purposes only