>
 >
Thank God For The Suffering

Thank God For The Suffering Guitar Tabs

Cradle Of Filth - Thank God For The Suffering chords, tabs, tablatures, lyrics

Guitar lessons | Add/correct | Request | Top 50 tabs Artists:  A B C D E F G H I J K L M N O P Q R S T U V W X Y Z 0-9

Thank God For The Suffering Guitar Tabs – Cradle Of Filth

CD, Sheet music, Poster

Do you like Thank God For The Suffering? Share with your friends now
Bass TabsBass Tabs v2Bass Tabs v3Tabs
Tuning DADGBE

in Riff 2 and Riff 3 (in the up and down parts) there is no spaces i just made
them to recognize the (1) from the (11)
plz for ne corrections or questions e-mail me.


Riff 1

|--------------------------------------------------------------|
|--------------------------------------------------------------|
|----------------------------------------------------6---------|
|----5-6----5-6----5-6----5-6--6-5----6-5------5-------6-5-----|
|--8------8------8------8----------6------8--8---8-6-------8---|
|--------------------------------------------------------------|
                          X 4

Riff 2

|----------------------------------------------|
|----------------------------------------------|
|----------------------------------------------|
|--3-6-5-5---3-6-5-2---3-6-5-5---3-6-5-2--1----|
|--3-6-5-5---3-6-5-2---3-6-5-5---3-6-5-2--1----|
|--3-6-5-5---3-6-5-2---3-6-5-5---3-6-5-2--1----|

|---------------------------------------------------------------------------------------------|
|---------------------------------------------------------------------------------------------|
|---------------------------------------------------------------------------------------------|
|--3-3-3-3-3-3-3-3-3-3-3-3-3-3-3-6-6-6-6-6-6-6-6-6-6-6-6-6-6-6-6-5-5-5-5-5-5-5-5-5-5-5-5-5-5--|
|--3-3-3-3-3-3-3-3-3-3-3-3-3-3-3-6-6-6-6-6-6-6-6-6-6-6-6-6-6-6-6-5-5-5-5-5-5-5-5-5-5-5-5-5-5--|
|--3-3-3-3-3-3-3-3-3-3-3-3-3-3-3-6-6-6-6-6-6-6-6-6-6-6-6-6-6-6-6-5-5-5-5-5-5-5-5-5-5-5-5-5-5--|
   D U D U D D U D U D U D U D U D U D U D U D U D U D U D U D U D U D U D U D U D U D U D U

|--------------------------------------------------------------------------------------------------|
|--------------------------------------------------------------------------------------------------|
|--------------------------------------------------------------------------------------------------|
|--3-3-3-3-3-3-3-3-3-3-3-3-3-3-3-6-6-6-6-6-6-6-6-6-6-6-6-6-6-6-6-2-2-2-2-2-2-2-2-2-2-2-2-2-2-------|
|--3-3-3-3-3-3-3-3-3-3-3-3-3-3-3-6-6-6-6-6-6-6-6-6-6-6-6-6-6-6-6-2-2-2-2-2-2-2-2-2-2-2-2-2-2-------|
|--3-3-3-3-3-3-3-3-3-3-3-3-3-3-3-6-6-6-6-6-6-6-6-6-6-6-6-6-6-6-6-2-2-2-2-2-2-2-2-2-2-2-2-2-2-------|
   D U D U D D U D U D U D U D U D U D U D U D U D U D U D U D U D U D U D U D U D U D U D U

|---------------------------------------------------------------------------------------------|
|---------------------------------------------------------------------------------------------|
|---------------------------------------------------------------------------------------------|
|--3-3-3-3-3-3-3-3-3-3-3-3-3-3-3-6-6-6-6-6-6-6-6-6-6-6-6-6-6-6-6-5-5-5-5-5-5-5-5-5-5-5-5-5-5--|
|--3-3-3-3-3-3-3-3-3-3-3-3-3-3-3-6-6-6-6-6-6-6-6-6-6-6-6-6-6-6-6-5-5-5-5-5-5-5-5-5-5-5-5-5-5--|
|--3-3-3-3-3-3-3-3-3-3-3-3-3-3-3-6-6-6-6-6-6-6-6-6-6-6-6-6-6-6-6-5-5-5-5-5-5-5-5-5-5-5-5-5-5--|
   D U D U D D U D U D U D U D U D U D U D U D U D U D U D U D U D U D U D U D U D U D U D U

|--------------------------------------------------------------------------------------------------------------------------|
|--------------------------------------------------------------------------------------------------------------------------|
|--------------------------------------------------------------------------------------------------------------------------|
|--3-3-3-3-3-3-3-3-3-3-3-3-3-3-3-6-6-6-6-6-6-6-6-6-6-6-6-6-6-6-6-2-2-2-2-2-2-2-2-2-2-2-2-2-2-1-1-1-1-1-1-1-1-1-1-1-1-------|
|--3-3-3-3-3-3-3-3-3-3-3-3-3-3-3-6-6-6-6-6-6-6-6-6-6-6-6-6-6-6-6-2-2-2-2-2-2-2-2-2-2-2-2-2-2-1-1-1-1-1-1-1-1-1-1-1-1-------|
|--3-3-3-3-3-3-3-3-3-3-3-3-3-3-3-6-6-6-6-6-6-6-6-6-6-6-6-6-6-6-6-2-2-2-2-2-2-2-2-2-2-2-2-2-2-1-1-1-1-1-1-1-1-1-1-1-1-------|
   D U D U D D U D U D U D U D U D U D U D U D U D U D U D U D U D U D U D U D U D U D U D U D U D U D U D U D U D U

in this part you'll have to figure out how many times to do each chord from the song then u'll do them up and down strokes

Riff 1

|--------------------------------------------------------------|
|--------------------------------------------------------------|
|----------------------------------------------------6---------|
|----5-6----5-6----5-6----5-6--6-5----6-5------5-------6-5-----|
|--8------8------8------8----------6------8--8---8-6-------8---|
|--------------------------------------------------------------|
                          X 2

Riff 2

|----------------------------------------------|
|----------------------------------------------|
|----------------------------------------------|
|--3-6-5-5---3-6-5-2---3-6-5-5---3-6-5-2--1----|
|--3-6-5-5---3-6-5-2---3-6-5-5---3-6-5-2--1----|
|--3-6-5-5---3-6-5-2---3-6-5-5---3-6-5-2--1----|

|---------------------------------------------------------------------------------------------|
|---------------------------------------------------------------------------------------------|
|---------------------------------------------------------------------------------------------|
|--3-3-3-3-3-3-3-3-3-3-3-3-3-3-3-6-6-6-6-6-6-6-6-6-6-6-6-6-6-6-6-5-5-5-5-5-5-5-5-5-5-5-5-5-5--|
|--3-3-3-3-3-3-3-3-3-3-3-3-3-3-3-6-6-6-6-6-6-6-6-6-6-6-6-6-6-6-6-5-5-5-5-5-5-5-5-5-5-5-5-5-5--|
|--3-3-3-3-3-3-3-3-3-3-3-3-3-3-3-6-6-6-6-6-6-6-6-6-6-6-6-6-6-6-6-5-5-5-5-5-5-5-5-5-5-5-5-5-5--|
   D U D U D D U D U D U D U D U D U D U D U D U D U D U D U D U D U D U D U D U D U D U D U

|--------------------------------------------------------------------------------------------------|
|--------------------------------------------------------------------------------------------------|
|--------------------------------------------------------------------------------------------------|
|--3-3-3-3-3-3-3-3-3-3-3-3-3-3-3-6-6-6-6-6-6-6-6-6-6-6-6-6-6-6-6-2-2-2-2-2-2-2-2-2-2-2-2-2-2-------|
|--3-3-3-3-3-3-3-3-3-3-3-3-3-3-3-6-6-6-6-6-6-6-6-6-6-6-6-6-6-6-6-2-2-2-2-2-2-2-2-2-2-2-2-2-2-------|
|--3-3-3-3-3-3-3-3-3-3-3-3-3-3-3-6-6-6-6-6-6-6-6-6-6-6-6-6-6-6-6-2-2-2-2-2-2-2-2-2-2-2-2-2-2-------|
   D U D U D D U D U D U D U D U D U D U D U D U D U D U D U D U D U D U D U D U D U D U D U

|---------------------------------------------------------------------------------------------|
|---------------------------------------------------------------------------------------------|
|---------------------------------------------------------------------------------------------|
|--3-3-3-3-3-3-3-3-3-3-3-3-3-3-3-6-6-6-6-6-6-6-6-6-6-6-6-6-6-6-6-5-5-5-5-5-5-5-5-5-5-5-5-5-5--|
|--3-3-3-3-3-3-3-3-3-3-3-3-3-3-3-6-6-6-6-6-6-6-6-6-6-6-6-6-6-6-6-5-5-5-5-5-5-5-5-5-5-5-5-5-5--|
|--3-3-3-3-3-3-3-3-3-3-3-3-3-3-3-6-6-6-6-6-6-6-6-6-6-6-6-6-6-6-6-5-5-5-5-5-5-5-5-5-5-5-5-5-5--|
   D U D U D D U D U D U D U D U D U D U D U D U D U D U D U D U D U D U D U D U D U D U D U

|--------------------------------------------------------------------------------------------------------------------------|
|--------------------------------------------------------------------------------------------------------------------------|
|--------------------------------------------------------------------------------------------------------------------------|
|--3-3-3-3-3-3-3-3-3-3-3-3-3-3-3-6-6-6-6-6-6-6-6-6-6-6-6-6-6-6-6-2-2-2-2-2-2-2-2-2-2-2-2-2-2-1-1-1-1-1-1-1-1-1-1-1-1-------|
|--3-3-3-3-3-3-3-3-3-3-3-3-3-3-3-6-6-6-6-6-6-6-6-6-6-6-6-6-6-6-6-2-2-2-2-2-2-2-2-2-2-2-2-2-2-1-1-1-1-1-1-1-1-1-1-1-1-------|
|--3-3-3-3-3-3-3-3-3-3-3-3-3-3-3-6-6-6-6-6-6-6-6-6-6-6-6-6-6-6-6-2-2-2-2-2-2-2-2-2-2-2-2-2-2-1-1-1-1-1-1-1-1-1-1-1-1-------|
   D U D U D D U D U D U D U D U D U D U D U D U D U D U D U D U D U D U D U D U D U D U D U D U D U D U D U D U D U


Riff 3

|-------------------------------------------------------------------------------------------------------------------------------|
|-------------------------------------------------------------------------------------------------------------------------------|
|-------------------------------------------------------------------------------------------------------------------------------|
|--8-8-8-8-8-8-8-8-8-8-8-8-8-0-8-8-8-8-8-8-8-8-8-8-8-8-8-4-4-4-4-4-4-4-4-4-4-4-4-4-4-4-6-6-6-6-6-6-6-6-6-7-7-7-7-7-7-7-7-7-7-7--|
|--8-8-8-8-8-8-8-8-8-8-8-8-8-0-8-8-8-8-8-8-8-8-8-8-8-8-8-4-4-4-4-4-4-4-4-4-4-4-4-4-4-4-6-6-6-6-6-6-6-6-6-7-7-7-7-7-7-7-7-7-7-7--|
|--8-8-8-8-8-8-8-8-8-8-8-8-8-0-8-8-8-8-8-8-8-8-8-8-8-8-8-4-4-4-4-4-4-4-4-4-4-4-4-4-4-4-6-6-6-6-6-6-6-6-6-7-7-7-7-7-7-7-7-7-7-7--|
   D U D U D D U D U D U D U D U D U D U D U D U D U D U D U D U D U D U D U D U D U D U D U D D U D U D D U D U D U D U D U D

|--------------------------------------------------------------------------------------------------------------------|
|--------------------------------------------------------------------------------------------------------------------|
|--------------------------------------------------------------------------------------------------------------------|
|--8-8-8-8-8-8-8-8-8-8-8-8-8-7-7-7-7-7-7-7-7-7-7-7-7-6-6-6-6-6-6-6-6-6-6-1-1-1-1-1-1-1-1-1-1-1-1-3-3-3-3-------------|
|--8-8-8-8-8-8-8-8-8-8-8-8-8-7-7-7-7-7-7-7-7-7-7-7-7-6-6-6-6-6-6-6-6-6-6-1-1-1-1-1-1-1-1-1-1-1-1-3-3-3-3--------4-3--|
|--8-8-8-8-8-8-8-8-8-8-8-8-8-7-7-7-7-7-7-7-7-7-7-7-7-6-6-6-6-6-6-6-6-6-6-1-1-1-1-1-1-1-1-1-1-1-1-3-3-3-3------1------|
   D U D U D D U D U D U D U D U D U D U D U D U D U D U D U D U D U D U D U D U D U D U D U   D U D U D

|------------------------------------------------------------------|
|------------------------------------------------------------------|
|------------------------------------------------------------------|
|--8-----11-----13-----15------------------------------------------|
|--8-----11-----13-----15------------------------------------------|
|--8-----11-----13-----15------------------------------------------|

|--------------------------------------------------------------------------------------------------------------------------------------------|
|--------------------------------------------------------------------------------------------------------------------------------------------|
|--------------------------------------------------------------------------------------------------------------------------------------------|
|-8-8-8-8-8-8-8-8-8-8-8-11-11-11-11-11-11-11-11-10-10-10-10-10-7-7-7-7-7-7-7-7-7-7-10-10-10-10-10-10-8-8-7-7-4-4-4-4-8-8-7-7-4-4-4-4-8-8-7-7-|
|-8-8-8-8-8-8-8-8-8-8-8-11-11-11-11-11-11-11-11-10-10-10-10-10-7-7-7-7-7-7-7-7-7-7-10-10-10-10-10-10-8-8-7-7-4-4-4-4-8-8-7-7-4-4-4-4-8-8-7-7-|
|-8-8-8-8-8-8-8-8-8-8-8-11-11-11-11-11-11-11-11-10-10-10-10-10-7-7-7-7-7-7-7-7-7-7-10-10-10-10-10-10-8-8-7-7-4-4-4-4-8-8-7-7-4-4-4-4-8-8-7-7-|
  D U D U D D U D U D U D  U  D  U  D  U  D  U  D  U  D  U  D  D U D U D U D U D U D  U  D  U  D  U  D U D U D U D U D U D U D U D U D U D U

|--------------------------------------------------------------------------------------------------------------------------------------------|
|--------------------------------------------------------------------------------------------------------------------------------------------|
|--------------------------------------------------------------------------------------------------------------------------------------------|
|-8-8-8-8-8-8-8-8-8-8-8-11-11-11-11-11-11-11-11-10-10-10-10-10-7-7-7-7-7-7-7-7-7-7-10-10-10-10-10-10-8-8-7-7-4-4-4-4-8-8-7-7-4-4-4-4-8-8-7-7-|
|-8-8-8-8-8-8-8-8-8-8-8-11-11-11-11-11-11-11-11-10-10-10-10-10-7-7-7-7-7-7-7-7-7-7-10-10-10-10-10-10-8-8-7-7-4-4-4-4-8-8-7-7-4-4-4-4-8-8-7-7-|
|-8-8-8-8-8-8-8-8-8-8-8-11-11-11-11-11-11-11-11-10-10-10-10-10-7-7-7-7-7-7-7-7-7-7-10-10-10-10-10-10-8-8-7-7-4-4-4-4-8-8-7-7-4-4-4-4-8-8-7-7-|
  D U D U D D U D U D U D  U  D  U  D  U  D  U  D  U  D  U  D  D U D U D U D U D U D  U  D  U  D  U  D U D U D U D U D U D U D U D U D U D U

|--------------------------------------------------------------------------------------------------------------------------------------------|
|--------------------------------------------------------------------------------------------------------------------------------------------|
|--------------------------------------------------------------------------------------------------------------------------------------------|
|-8-8-8-8-8-8-8-8-8-8-8-11-11-11-11-11-11-11-11-10-10-10-10-10-7-7-7-7-7-7-7-7-7-7-10-10-10-10-10-10-8-8-7-7-4-4-4-4-8-8-7-7-4-4-4-4-8-8-7-7-|
|-8-8-8-8-8-8-8-8-8-8-8-11-11-11-11-11-11-11-11-10-10-10-10-10-7-7-7-7-7-7-7-7-7-7-10-10-10-10-10-10-8-8-7-7-4-4-4-4-8-8-7-7-4-4-4-4-8-8-7-7-|
|-8-8-8-8-8-8-8-8-8-8-8-11-11-11-11-11-11-11-11-10-10-10-10-10-7-7-7-7-7-7-7-7-7-7-10-10-10-10-10-10-8-8-7-7-4-4-4-4-8-8-7-7-4-4-4-4-8-8-7-7-|
  D U D U D D U D U D U D  U  D  U  D  U  D  U  D  U  D  U  D  D U D U D U D U D U D  U  D  U  D  U  D U D U D U D U D U D U D U D U D U D U

|------------------------------------------------------------------------------------|
|------------------------------------------------------------------------------------|
|------------------------------------------------------------------------------------|
|-10-10-10-11-10-11-11-8-11-10-10-10-11-10-11-11-13-11-8-11-10-----------------------|
|-10-10-10-11-10-11-11-8-11-10-10-10-11-10-11-11-13-11-8-11-10-----------------------|
|-10-10-10-11-10-11-11-8-11-10-10-10-11-10-11-11-13-11-8-11-10-----------------------|


|-------------------------------------------------------------------------------------------------------------------------------|
|-------------------------------------------------------------------------------------------------------------------------------|
|-------------------------------------------------------------------------------------------------------------------------------|
|-10-10-10-10-10-10-11-10-10-11-11-11-8-8-8-11-11-11-10-10-10-10-10-10-11-11-11-10-10-14-14-14-14-14-11-11-11-11-10-10-10-10----|
|-10-10-10-10-10-10-11-10-10-11-11-11-8-8-8-11-11-11-10-10-10-10-10-10-11-11-11-10-10-14-14-14-14-14-11-11-11-11-10-10-10-10----|
|-10-10-10-10-10-10-11-10-10-11-11-11-8-8-8-11-11-11-10-10-10-10-10-10-11-11-11-10-10-14-14-14-14-14-11-11-11-11-10-10-10-10----|
  D  U  D  U  D  U  D  D  U  D  U  D  D U D D  U  D  D  U  D  U  D  U  D  U  D  D  U  D  U  D  U  D  D  U  D  U  D  U  D  U

|-------------------------------------------------------------------------------------------------------------------------------------|
|-------------------------------------------------------------------------------------------------------------------------------------|
|-------------------------------------------------------------------------------------------------------------------------------------|
|--10-10-10-10-10-10-11-10-10-11-11-11-8-8-8-11-11-11-10-10-10-10-10-10-11-11-10-10-11-11-11-13-13-11-11-11-8-8-8-11-11-10-10-10-10-10|
|--10-10-10-10-10-10-11-10-10-11-11-11-8-8-8-11-11-11-10-10-10-10-10-10-11-11-10-10-11-11-11-13-13-11-11-11-8-8-8-11-11-10-10-10-10-10|
|--10-10-10-10-10-10-11-10-10-11-11-11-8-8-8-11-11-11-10-10-10-10-10-10-11-11-10-10-11-11-11-13-13-11-11-11-8-8-8-11-11-10-10-10-10-10|
   D  U  D  U  D  U  D  D  U  D  U  D  D U D D  U  D  D  U  D  U  D  U  D  U  D  D  D  U  D  D  U  D  U  D  D U D D  U  D  U  D  U  D

|--------------------------------------------------------------------------------------------------------------------------------|
|--------------------------------------------------------------------------------------------------------------------------------|
|--------------------------------------------------------------------------------------------------------------------------------|
|--10-10-10-10-10-10-11-10-10-11-11-11-8-8-8-11-11-11-10-10-10-10-10-10-11-11-11-10-10-14-14-14-14-14-11-11-11-11-10-10-10-10----|
|--10-10-10-10-10-10-11-10-10-11-11-11-8-8-8-11-11-11-10-10-10-10-10-10-11-11-11-10-10-14-14-14-14-14-11-11-11-11-10-10-10-10----|
|--10-10-10-10-10-10-11-10-10-11-11-11-8-8-8-11-11-11-10-10-10-10-10-10-11-11-11-10-10-14-14-14-14-14-11-11-11-11-10-10-10-10----|
   D  U  D  U  D  U  D  D  U  D  U  D  D U D D  U  D  D  U  D  U  D  U  D  U  D  D  U  D  U  D  U  D  D  U  D  U  D  U  D  U



in this part too you'll have to figure out how many times to do each chord from the song then u'll do them up and down strokes


Riff 2

|----------------------------------------------|
|----------------------------------------------|
|----------------------------------------------|
|--3-6-5-5---3-6-5-2---3-6-5-5---3-6-5-2--1----|
|--3-6-5-5---3-6-5-2---3-6-5-5---3-6-5-2--1----|
|--3-6-5-5---3-6-5-2---3-6-5-5---3-6-5-2--1----|

|---------------------------------------------------------------------------------------------|
|---------------------------------------------------------------------------------------------|
|---------------------------------------------------------------------------------------------|
|--3-3-3-3-3-3-3-3-3-3-3-3-3-3-3-6-6-6-6-6-6-6-6-6-6-6-6-6-6-6-6-5-5-5-5-5-5-5-5-5-5-5-5-5-5--|
|--3-3-3-3-3-3-3-3-3-3-3-3-3-3-3-6-6-6-6-6-6-6-6-6-6-6-6-6-6-6-6-5-5-5-5-5-5-5-5-5-5-5-5-5-5--|
|--3-3-3-3-3-3-3-3-3-3-3-3-3-3-3-6-6-6-6-6-6-6-6-6-6-6-6-6-6-6-6-5-5-5-5-5-5-5-5-5-5-5-5-5-5--|
   D U D U D D U D U D U D U D U D U D U D U D U D U D U D U D U D U D U D U D U D U D U D U

|--------------------------------------------------------------------------------------------------|
|--------------------------------------------------------------------------------------------------|
|--------------------------------------------------------------------------------------------------|
|--3-3-3-3-3-3-3-3-3-3-3-3-3-3-3-6-6-6-6-6-6-6-6-6-6-6-6-6-6-6-6-2-2-2-2-2-2-2-2-2-2-2-2-2-2-------|
|--3-3-3-3-3-3-3-3-3-3-3-3-3-3-3-6-6-6-6-6-6-6-6-6-6-6-6-6-6-6-6-2-2-2-2-2-2-2-2-2-2-2-2-2-2-------|
|--3-3-3-3-3-3-3-3-3-3-3-3-3-3-3-6-6-6-6-6-6-6-6-6-6-6-6-6-6-6-6-2-2-2-2-2-2-2-2-2-2-2-2-2-2-------|
   D U D U D D U D U D U D U D U D U D U D U D U D U D U D U D U D U D U D U D U D U D U D U

|---------------------------------------------------------------------------------------------|
|---------------------------------------------------------------------------------------------|
|---------------------------------------------------------------------------------------------|
|--3-3-3-3-3-3-3-3-3-3-3-3-3-3-3-6-6-6-6-6-6-6-6-6-6-6-6-6-6-6-6-5-5-5-5-5-5-5-5-5-5-5-5-5-5--|
|--3-3-3-3-3-3-3-3-3-3-3-3-3-3-3-6-6-6-6-6-6-6-6-6-6-6-6-6-6-6-6-5-5-5-5-5-5-5-5-5-5-5-5-5-5--|
|--3-3-3-3-3-3-3-3-3-3-3-3-3-3-3-6-6-6-6-6-6-6-6-6-6-6-6-6-6-6-6-5-5-5-5-5-5-5-5-5-5-5-5-5-5--|
   D U D U D D U D U D U D U D U D U D U D U D U D U D U D U D U D U D U D U D U D U D U D U

|--------------------------------------------------------------------------------------------------------------------------|
|--------------------------------------------------------------------------------------------------------------------------|
|--------------------------------------------------------------------------------------------------------------------------|
|--3-3-3-3-3-3-3-3-3-3-3-3-3-3-3-6-6-6-6-6-6-6-6-6-6-6-6-6-6-6-6-2-2-2-2-2-2-2-2-2-2-2-2-2-2-1-1-1-1-1-1-1-1-1-1-1-1-------|
|--3-3-3-3-3-3-3-3-3-3-3-3-3-3-3-6-6-6-6-6-6-6-6-6-6-6-6-6-6-6-6-2-2-2-2-2-2-2-2-2-2-2-2-2-2-1-1-1-1-1-1-1-1-1-1-1-1-------|
|--3-3-3-3-3-3-3-3-3-3-3-3-3-3-3-6-6-6-6-6-6-6-6-6-6-6-6-6-6-6-6-2-2-2-2-2-2-2-2-2-2-2-2-2-2-1-1-1-1-1-1-1-1-1-1-1-1-------|
   D U D U D D U D U D U D U D U D U D U D U D U D U D U D U D U D U D U D U D U D U D U D U D U D U D U D U D U D U


Drums

Riff 1

|--------------------------------------------------------------|
|--------------------------------------------------------------|
|----------------------------------------------------6---------|
|----5-6----5-6----5-6----5-6--6-5----6-5------5-------6-5-----|
|--8------8------8------8----------6------8--8---8-6-------8---|
|--------------------------------------------------------------|
                          X 4

Riff 2

|----------------------------------------------|
|----------------------------------------------|
|----------------------------------------------|
|--3-6-5-5---3-6-5-2---3-6-5-5---3-6-5-2--1----|
|--3-6-5-5---3-6-5-2---3-6-5-5---3-6-5-2--1----|
|--3-6-5-5---3-6-5-2---3-6-5-5---3-6-5-2--1----|

|---------------------------------------------------------------------------------------------|
|---------------------------------------------------------------------------------------------|
|---------------------------------------------------------------------------------------------|
|--3-3-3-3-3-3-3-3-3-3-3-3-3-3-3-6-6-6-6-6-6-6-6-6-6-6-6-6-6-6-6-5-5-5-5-5-5-5-5-5-5-5-5-5-5--|
|--3-3-3-3-3-3-3-3-3-3-3-3-3-3-3-6-6-6-6-6-6-6-6-6-6-6-6-6-6-6-6-5-5-5-5-5-5-5-5-5-5-5-5-5-5--|
|--3-3-3-3-3-3-3-3-3-3-3-3-3-3-3-6-6-6-6-6-6-6-6-6-6-6-6-6-6-6-6-5-5-5-5-5-5-5-5-5-5-5-5-5-5--|
   D U D U D D U D U D U D U D U D U D U D U D U D U D U D U D U D U D U D U D U D U D U D U

|--------------------------------------------------------------------------------------------------|
|--------------------------------------------------------------------------------------------------|
|--------------------------------------------------------------------------------------------------|
|--3-3-3-3-3-3-3-3-3-3-3-3-3-3-3-6-6-6-6-6-6-6-6-6-6-6-6-6-6-6-6-2-2-2-2-2-2-2-2-2-2-2-2-2-2-------|
|--3-3-3-3-3-3-3-3-3-3-3-3-3-3-3-6-6-6-6-6-6-6-6-6-6-6-6-6-6-6-6-2-2-2-2-2-2-2-2-2-2-2-2-2-2-------|
|--3-3-3-3-3-3-3-3-3-3-3-3-3-3-3-6-6-6-6-6-6-6-6-6-6-6-6-6-6-6-6-2-2-2-2-2-2-2-2-2-2-2-2-2-2-------|
   D U D U D D U D U D U D U D U D U D U D U D U D U D U D U D U D U D U D U D U D U D U D U

|---------------------------------------------------------------------------------------------|
|---------------------------------------------------------------------------------------------|
|---------------------------------------------------------------------------------------------|
|--3-3-3-3-3-3-3-3-3-3-3-3-3-3-3-6-6-6-6-6-6-6-6-6-6-6-6-6-6-6-6-5-5-5-5-5-5-5-5-5-5-5-5-5-5--|
|--3-3-3-3-3-3-3-3-3-3-3-3-3-3-3-6-6-6-6-6-6-6-6-6-6-6-6-6-6-6-6-5-5-5-5-5-5-5-5-5-5-5-5-5-5--|
|--3-3-3-3-3-3-3-3-3-3-3-3-3-3-3-6-6-6-6-6-6-6-6-6-6-6-6-6-6-6-6-5-5-5-5-5-5-5-5-5-5-5-5-5-5--|
   D U D U D D U D U D U D U D U D U D U D U D U D U D U D U D U D U D U D U D U D U D U D U

|--------------------------------------------------------------------------------------------------------------------------|
|--------------------------------------------------------------------------------------------------------------------------|
|--------------------------------------------------------------------------------------------------------------------------|
|--3-3-3-3-3-3-3-3-3-3-3-3-3-3-3-6-6-6-6-6-6-6-6-6-6-6-6-6-6-6-6-2-2-2-2-2-2-2-2-2-2-2-2-2-2-1-1-1-1-1-1-1-1-1-1-1-1-------|
|--3-3-3-3-3-3-3-3-3-3-3-3-3-3-3-6-6-6-6-6-6-6-6-6-6-6-6-6-6-6-6-2-2-2-2-2-2-2-2-2-2-2-2-2-2-1-1-1-1-1-1-1-1-1-1-1-1-------|
|--3-3-3-3-3-3-3-3-3-3-3-3-3-3-3-6-6-6-6-6-6-6-6-6-6-6-6-6-6-6-6-2-2-2-2-2-2-2-2-2-2-2-2-2-2-1-1-1-1-1-1-1-1-1-1-1-1-------|
   D U D U D D U D U D U D U D U D U D U D U D U D U D U D U D U D U D U D U D U D U D U D U D U D U D U D U D U D U

Riff 3

|-------------------------------------------------------------------------------------------------------------------------------|
|-------------------------------------------------------------------------------------------------------------------------------|
|-------------------------------------------------------------------------------------------------------------------------------|
|--8-8-8-8-8-8-8-8-8-8-8-8-8-0-8-8-8-8-8-8-8-8-8-8-8-8-8-4-4-4-4-4-4-4-4-4-4-4-4-4-4-4-6-6-6-6-6-6-6-6-6-7-7-7-7-7-7-7-7-7-7-7--|
|--8-8-8-8-8-8-8-8-8-8-8-8-8-0-8-8-8-8-8-8-8-8-8-8-8-8-8-4-4-4-4-4-4-4-4-4-4-4-4-4-4-4-6-6-6-6-6-6-6-6-6-7-7-7-7-7-7-7-7-7-7-7--|
|--8-8-8-8-8-8-8-8-8-8-8-8-8-0-8-8-8-8-8-8-8-8-8-8-8-8-8-4-4-4-4-4-4-4-4-4-4-4-4-4-4-4-6-6-6-6-6-6-6-6-6-7-7-7-7-7-7-7-7-7-7-7--|
   D U D U D D U D U D U D U D U D U D U D U D U D U D U D U D U D U D U D U D U D U D U D U D D U D U D D U D U D U D U D U D

|--------------------------------------------------------------------------------------------------------------------|
|--------------------------------------------------------------------------------------------------------------------|
|--------------------------------------------------------------------------------------------------------------------|
|--8-8-8-8-8-8-8-8-8-8-8-8-8-7-7-7-7-7-7-7-7-7-7-7-7-6-6-6-6-6-6-6-6-6-6-1-1-1-1-1-1-1-1-1-1-1-1-3-3-3-3-------------|
|--8-8-8-8-8-8-8-8-8-8-8-8-8-7-7-7-7-7-7-7-7-7-7-7-7-6-6-6-6-6-6-6-6-6-6-1-1-1-1-1-1-1-1-1-1-1-1-3-3-3-3--------4-3--|
|--8-8-8-8-8-8-8-8-8-8-8-8-8-7-7-7-7-7-7-7-7-7-7-7-7-6-6-6-6-6-6-6-6-6-6-1-1-1-1-1-1-1-1-1-1-1-1-3-3-3-3------1------|
   D U D U D D U D U D U D U D U D U D U D U D U D U D U D U D U D U D U D U D U D U D U D U   D U D U D

|-------------------------------------------------------------------------------------------------------------------------------|
|-------------------------------------------------------------------------------------------------------------------------------|
|-------------------------------------------------------------------------------------------------------------------------------|
|--8-8-8-8-8-8-8-8-8-8-8-8-8-0-8-8-8-8-8-8-8-8-8-8-8-8-8-4-4-4-4-4-4-4-4-4-4-4-4-4-4-4-6-6-6-6-6-6-6-6-6-7-7-7-7-7-7-7-7-7-7-7--|
|--8-8-8-8-8-8-8-8-8-8-8-8-8-0-8-8-8-8-8-8-8-8-8-8-8-8-8-4-4-4-4-4-4-4-4-4-4-4-4-4-4-4-6-6-6-6-6-6-6-6-6-7-7-7-7-7-7-7-7-7-7-7--|
|--8-8-8-8-8-8-8-8-8-8-8-8-8-0-8-8-8-8-8-8-8-8-8-8-8-8-8-4-4-4-4-4-4-4-4-4-4-4-4-4-4-4-6-6-6-6-6-6-6-6-6-7-7-7-7-7-7-7-7-7-7-7--|
   D U D U D D U D U D U D U D U D U D U D U D U D U D U D U D U D U D U D U D U D U D U D U D D U D U D D U D U D U D U D U D

|--------------------------------------------------------------------------------------------------------------------|
|--------------------------------------------------------------------------------------------------------------------|
|--------------------------------------------------------------------------------------------------------------------|
|--8-8-8-8-8-8-8-8-8-8-8-8-8-7-7-7-7-7-7-7-7-7-7-7-7-6-6-6-6-6-6-6-6-6-6-1-1-1-1-1-1-1-1-1-1-1-1-3-3-3-3-------------|
|--8-8-8-8-8-8-8-8-8-8-8-8-8-7-7-7-7-7-7-7-7-7-7-7-7-6-6-6-6-6-6-6-6-6-6-1-1-1-1-1-1-1-1-1-1-1-1-3-3-3-3--------4-3--|
|--8-8-8-8-8-8-8-8-8-8-8-8-8-7-7-7-7-7-7-7-7-7-7-7-7-6-6-6-6-6-6-6-6-6-6-1-1-1-1-1-1-1-1-1-1-1-1-3-3-3-3------1------|
   D U D U D D U D U D U D U D U D U D U D U D U D U D U D U D U D U D U D U D U D U D U D U   D U D U D

That's it.





Comments


Popular Cradle Of Filth tabs & chords
A Gothic Romance Bass Tabs
Dirge Inferno Bass Tabs
Her Ghost In The Fog Bass Tabs
Death Magick For Adepts Tabs
Doberman Pharaoh Tabs
Gilded Cunt Tabs
Hell Awaits Tabs
I Am The Thorn Tabs
Saffrons Curse (Intro) Tabs
The Death Of Love 1 Tabs


Song lyrics



↑ Back to top | Tablatures and chords are parodies/interpretations of the original songs. You may use it for private study, scholarship, research or language learning purposes only
© 2014 AZChords.com Contact us | Privacy policy | DMCA | Add/correct tabs | Request tabs | Top 50 tabs