» » »

Cradle Of Filth, Sleepless Bass tabs (ver.1)

Artists:  A B C D E F G H I J K L M N O P Q R S T U V W X Y Z # 

Sleepless Bass tabs (ver.1)

Cradle Of Filth Tabs
 Rating:
4/5 (4 votes)
Sleepless  lessons Tabs too difficult? Try these video lessons and learn fast
                (2)
G -------- ------------- ----- ------ --------
D -------- ------------- ----- ------ --------
A -------- ---3--5----0- 11110 111113 -0000---
E 66666032 -0------5---- ----- ------ -----32-

G ----- ----- ----- -------- --- --- --- ---
D ----- ----- ----- -------- --- -2- -3- ---    (chorus)
A ----- -111- -111- -000---- --- --- --- ---
E -000- ----- ----- -----32- -0- --- --- -5-
  ---------->--------slow---->-------------->

G --------- ----------- ------- ------------
D --------- ----------- ------- ------------
A -------0- -111111--0- -11111- -010--------
E -00000--- ----------- ------- -----555353-

This was my first tab to every do so it might be a little off.  Use it and try to fit it into the song as best as possible. Thanks
            
Submit corrections

comments powered by Disqus
↑ Back to top | Cradle Of Filth Bass for Sleepless. Lyrics for acoustic guitar and electric guitar. Tablatures and chords are parodies/interpretations of the original songs. You may use it for private study, scholarship, research or language learning purposes only