» » »

Sleepless Tabs (ver.2)

Artists:  A B C D E F G H I J K L M N O P Q R S T U V W X Y Z # 

Sleepless Tabs (ver.2)

Cradle Of Filth
Rating:
0/5 (0 votes)

Hard to play? Try these video lessons and learn fast.
                Band   - Cradle Of Filth
Song   - Sleepless
CD     - Midian
AIm    - Empty St1tches
Tuning - D A D G B E

*This is an incomplete tab*

I havn't figured out the harmonics for the intro and chorus leads

Intro (Lead)
D|-12~~~11~~~|
A|-----------|
D|-----------|

Chorus (Rythem)
G|------------------------------------------|
D|-x7/--00-0--0--8-8-7-8/--8--8--7--7-3-2-0-|
A|-x7/--00-0--0--8-8-7-8/--8--8--7--7-3-2-0-|
D|-x7/--00-0--0--8-8-7-8/--8--8--7--7-3-2-0-|
PM	..                           . .

G|-7-7/----------------------------|
D|-7-7/-8-8-7-8/--8--8--7--7-3-2-0-|
A|-5-5/-8-8-7-8/--8--8--7--7-3-2-0-|
D|------8-8-7-8/--8--8--7--7-3-2-0-|
			     . . .

Verse (No Guitar)
Chorus
Interlude
Chorus
Lead chorus riff

Bridge/solo    x1 V 12's
G|--------------|---------------------------------------
D|-00000000--12-|-000-7-8-88888-7-8-88888-7-8-7-5-55555-
A|-00000000--12-|-000-7-8-88888-7-8-88888-7-8-7-5-55555-
D|-00000000--12-|-000-7-8-88888-7-8-88888-7-8-7-5-55555-
PM ........    ....     .....     .....         .....

Alternate each
D|-3h4h5-3p1p0h3p1p0-|-8-7p5-5h7p5p3-|
A|-------------------|---------------|
D|-------------------|---------------|

Solo (Incomplete)
G|-----------------------------------------------------------------
D|-14-12-10-10-12-10-10-10-7-7-7-12^-10-10-12-10-10-15^-15-15-13-12-
A|-----------------------------------------------------------------
D|-----------------------------------------------------------------

G|-14-14^14----------
D|----------15-12-12/
A|----------------12/
D|----------------12/
            
Hard to play? Try these video lessons and learn fast. | Correct




comments powered by Disqus
↑ Back to top | Tablatures and chords are parodies/interpretations of the original songs. You may use it for private study, scholarship, research or language learning purposes only