» » »

Saffron's Curse Bass tabs (ver.1)

Artists:  A B C D E F G H I J K L M N O P Q R S T U V W X Y Z # 

Saffron's Curse Bass tabs (ver.1)

Cradle Of Filth
Rating:
0/5 (0 votes)

Hard to play? Try these video lessons and learn fast.
                Tuning: EADG

* = Let Note Ring
~ = Play Note Who Knows How Many Times

Intro |x2||0:04|
G---------------------------------------------------------------
D---------------------------------------------------------------
A---5*---------4*-----------------------------------------------
E---------------------------------------------------------------

Verse |x2||0:18|
G---------------------------------------------------------------
D---------------------------------------------------------------
A---------------------------------------------------------------
E---3*---------6-5*---------------------------------------------

Chorus |x4||0:31|
G---------------------------------------------------------------
D---------------------------------------------------------------
A---8~-----7~-----10~-----8~-----7~---------8-10-8-7------------
E---------------------------------------------------------------

Post-Chorus|x3||0:56|
G---------------------------------------------------------------
D------------3~----------------------3~-------------------------
A---3h5-3h5------------3h5-3h5--3~------------------------------
E---------------------------------------------------------------

Intro          |x2||1:15|
Verse          |x2||1:29|
Chorus         |x4||1:42|
Post Chorus    |x5||2:07|

Right After the Post Chorus section, the note that rings out
before the synth keyboard solo is OPEN D |x1||2:39|

~~~~~~~~~~~~~~~~~~~~HUGE KEYBOARD THING~~~~~~~~~~~~~~~~~~~~~

Post Keyboard Solo |x5||3:34|
G---------------------------------------------------------------
D---------------------------------------------------------------
A---8*--7h8p7--5-7-8*--7h8p7--5-7-8*--7h8p7--5-7-5-4-5-7--------
E---------------------------------------------------------------

Fast Part |x2||4:37|
G---------------------------------------------------------------
D---------------------------------------------------------------
A---5~--------1~--------3~--------------------------------------
E---------------------------------4~----------------------------

Chorus      |x4||5:02|
Post Chorus |x5||5:28|

The last note that rings out long is again OPEN D.|x1||6:00|
            
Hard to play? Try these video lessons and learn fast. | Correct




comments powered by Disqus
↑ Back to top | Tablatures and chords are parodies/interpretations of the original songs. You may use it for private study, scholarship, research or language learning purposes only