>
 >
Saffron's Curse

Saffron's Curse Guitar Tabs

Cradle Of Filth - Saffron's Curse chords, tabs, tablatures, lyrics

Guitar lessons | Add/correct | Request | Top 50 tabs Artists:  A B C D E F G H I J K L M N O P Q R S T U V W X Y Z 0-9

Saffron's Curse Guitar Tabs – Cradle Of Filth

CD, Sheet music, Poster

Do you like Saffron's Curse? Share with your friends now
Bass TabsTabs
Legend:

h       = hammer-on                b/     =  bend half a step           
p       = pull-off
t       = tap                        )
pm...   = palm mute                b/     =  bend one whole step
"       = tremolo picking          
          (or 32th note)           b/\    =  bend half a step and release
/       = slide up
\       = slide down                 )
~       = vibrato                  b/ \   =  bend one whole step and release
x\\\\   = pick slide               
4/4     = time signature           b      =  bend without picking
( )     = tie note                 B      =  bend with picking
x       = muffled note             /\/\/\ =  wide vibrato with tremolo bar
ah      = artificial harmonic
s       = short note


|----|            |-----|
|----| play       |-----| play
|-*/-| previous   |-*//-| previous
|-/*-| bar        |-//*-| two bars
|----|            |-----|
|----|            |-----|


Timing: 4/4: ----   = 1 beat
       12/8: ------ = 1 beat
             |_3_|  = triplet

Gtr 1 = left speaker
Gtr 2 = right speaker


Tune Down 1 whole step  (6:D 5:G 4:C 3:F 2:A 1:D)

Intro (Keyboard)

         (Gtr 1)
|-----------------|-----------------|-----------------|-----------------|
|-----------------|-----------------|-----------------|-----------------|
|-----------------|-----------------|-----------------|-----------------|
|-9"--------------|-777777779"------|-8-----8-----8---|-5555777755554444|
|-7"--------------|---------7"------|-6-66666-66666-66|-----------------|
|-----------------|-----------------|-----------------|-----------------|
|                                                                       |
| Riff A (Gtr 2)                                                        |
|-----------------|-----------------|-----------------|-----------------|
|-----------------|-----------------|-----------------|-----------------|
|-----------------|-----------------|-----------------|-----------------|
|-5555555544444444|-7777777755555544|-8-----8-----8---|-5555777755554444|
|-----------------|-----------------|-6-66666-66666-66|-----------------|
|-----------------|-----------------|-----------------|-----------------|


|-----------------|-----------------|-----------------|-----------------|
|-----------------|-----------------|-----------------|-----------------|
|-----------------|-----------------|-----------------|-----------------|
|-5-5---555-5---55|-5-5---555-5---55|-4"--------------|-5555777755554444|
|-3-3---333-3---33|-3-3---333-3---33|-2"--------------|-----------------|
|-----------------|-----------------|-----------------|-----------------|
|                                                                       |
|                                                          (end Riff A) |
|-----------------|-----------------|-----------------|-----------------|
|-----------------|-----------------|-----------------|-----------------|
|-----------------|-----------------|-----------------|-----------------|
|-5555555544444444|-7777777755555555|-----------------|-5555777755554444|
|-----------------|-----------------|-5555555555555555|-----------------|
|-----------------|-----------------|-----------------|-----------------|

 Riff A1 (Gtr 1) w/ Riff A
|-----------------|-----------------|-----------------|-----------------|
|-----------------|-----------------|-----------------|-----------------|
|-----------------|-----------------|-----------------|-----------------|
|-9"--------------|-9"--------------|-8-----8-----8---|-5555777755554444|
|-7"--------------|-7"--------------|-6-66666-66666-66|-----------------|
|-----------------|-----------------|-----------------|-----------------|

                                                           (end Riff A1)
|-----------------|-----------------|-----------------|-----------------|
|-----------------|-----------------|-----------------|-----------------|
|-----------------|-----------------|-----------------|-----------------|
|-5-5---555-5---55|-5-5---555-5---55|-4"--------------|-5555777755554444|
|-3-3---333-3---33|-3-3---333-3---33|-2"--------------|-----------------|
|-----------------|-----------------|-----------------|-----------------|

 Riff B                                                        (end Riff B)
|------------------|------------------|-----------------|------------------|
|------------------|------------------|-----------------|------------------|
|o-----------------|---------------p--|-----------------|--------------p--o|
|o-7/9-7/9---------|---------999910-9-|-7/9-7/9---------|---------77779-7-o|
|--5/7-5/7---------|-77777777---------|-5/7-5/7---------|-66666666---------|
|----------0-000-00|------------------|---------0-000-00|------------------|

 Riff B1 (Gtr 1) w/ Riff B                                  (end Riff B1)
|-----------------|------------------|-----------------|-----------------|
|-----------------|------------------|-----------------|-----------------|
|-----------------|---------------p--|-----------------|-----------------|
|-7/9-7/9---------|---------999910-9-|-7/9-7/9---------|-10""10""10""10""|
|-5/7-5/7---------|-77777777---------|-5/7-5/7---------|-----------------|
|---------0-000-00|------------------|---------0-000-00|-----------------|

(Gtrs out)

play Riff A & A1 2 times
play Riff B
play Riff B & B1 2 times

 Riff B2 (Gtr 2) w/ Riff B                                  (end Riff B2)
|-----------------|------------------|-----------------|-----------------|
|-----------------|------------------|-----------------|-----------------|
|-----------------|------------------|-----------------|--------------p--|
|-9\7/9-----------|---------999910-7-|/9\7/9-----------|---------77779-7-|
|-7\5/7-----------|-77777777-------5-|/7\5/7-----------|-66666666--------|
|---------0-000-00|------------------|---------0-000-00|-----------------|

play Riff B1 & B2
                                      Slower
|-----------------|------------------|---------------------------------|
|-----------------|------------------|---------------------------------|
|-----------------|------------------|-----------(Keyboard)------------|
|-----------------|------------------|---------------------------------|
|-2---------------|-(2)--let-it-fade-|---------------------------------|
|-0---------------|-(0)--------------|---------------------------------|

 Riff C                                                                    (end Riff C)
|-------------------|-----------------|-----|-----|-----------------|------------------|
|-------------------|-----------------|-----|-----|-----------------|------------------|
|o------------------|-----------------|-*//-|-*//-|-----------------|-----------------o|
|o------------------|-----------------|-//*-|-//*-|-----------------|-----------------o|
|--10~---------9-10-|-9~------7---9---|-----|-----|-7-------6-------|-7-------9--------|
|-------------------|-----------------|-----|-----|-----------------|------------------|

 (Gtr 2) w/ Riff C
|-----------------|-----------------|-----|-----|-----------------|-----------------|
|-----------------|-----------------|-----|-----|-----------------|-----------------|
|-----------------|-----------------|-*//-|-*//-|-----------------|-----------------|
|-9~----------7-9-|-7~------5---7---|-//*-|-//*-|-5-------4-------|-5-------7-------|
|-----------------|-----------------|-----|-----|-----------------|-----------------|
|-----------------|-----------------|-----|-----|-----------------|-----------------|

 (Both Gtrs)
|-----------------|-----------------|-----|-----|-----------------|-----------------|
|-----------------|-----------------|-----|-----|-----------------|-----------------|
|-----------------|-----------------|-*//-|-*//-|-----------------|-----------------|
|-----------------|-----------------|-//*-|-//*-|-----------------|-----------------|
|-----------------|-----------------|-----|-----|-7777777766666666|-7777777799999999|
|-3333333333332233|-2222222200002222|-----|-----|-----------------|-----------------|


|------------------|-----------------|-----|-----|-----------------|-----------------|
|------------------|-----------------|-----|-----|-----------------|-----------------|
|------------------|-----------------|-*//-|-*//-|-----------------|-----------------|
|------------------|-----------------|-//*-|-//*-|-----------------|-----------------|
|-10""10""10""9910"|-9999999977779999|-----|-----|-7777777766666666|-7777777799999999|
|------------------|-----------------|-----|-----|-----------------|-----------------|
|                                                                                    |
|                                                                                    |
|------------------|-----------------|-----|-----|-----------------|-----------------|
|------------------|-----------------|-----|-----|-----------------|-----------------|
|------------------|-----------------|-*//-|-*//-|-----------------|-----------------|
|-9999999999997799-|-7777777755557777|-//*-|-//*-|-5555555544444444|-5555555577777777|
|------------------|-----------------|-----|-----|-----------------|-----------------|
|------------------|-----------------|-----|-----|-----------------|-----------------|

Faster
  (Gtr 1)
|-----------------|------|------|-----------------|-----------------|------|------|
|-----------------|------|------|-----------------|-----------------|------|------|
|-----------------|--*/--|--*/--|-----------------|-----------------|--*/--|--*/--|
|-----------------|--/*--|--/*--|-----------------|-----------------|--/*--|--/*--|
|-2"--------------|------|------|-\\\\\pick\\\\\\\|-6"--------------|------|------|
|-0"--------------|------|------|-\\\\\slide\\\\\\|-4"--------------|------|------|
|                                                                                 |
| (Gtr 2)                                                                         |
|-----------------|------|------|-----------------|-----------------|------|------|
|-----------------|------|------|-----------------|-----------------|------|------|
|-----------------|--*/--|--*/--|-------*/--------|-----------------|--*/--|--*/--|
|-----------------|--/*--|--/*--|-------/*--------|-----------------|--/*--|--/*--|
|-2"--------------|------|------|-----------------|-6"--------------|------|------|
|-0"--------------|------|------|-----------------|-4"--------------|------|------|


|-----------------|-----------------|----|-----|-----------------|----|-----|
|-----------------|-----------------|----|-----|-----------------|----|-----|
|-----------------|-----------------|-*/-|-*//-|-----------------|-*/-|-*//-|
|-----------------|-7"--------------|-/*-|-//*-|-----------------|-/*-|-//*-|
|-\\\\\pick\\\\\\\|-5"--------------|----|-----|-8"--------------|----|-----|
|-\\\\\slide\\\\\\|-----------------|----|-----|-6"--------------|----|-----|
|                                                                           |
|                                                                           |
|-----------------|-----------------|----|-----|-----------------|----|-----|
|-----------------|-----------------|----|-----|-----------------|----|-----|
|-----------------|-----------------|-*/-|-*//-|-----------------|-*/-|-*//-|
|-----------------|-7"--------------|-/*-|-//*-|-----------------|-/*-|-//*-|
|-6"--------------|-5"--------------|----|-----|-8"--------------|----|-----|
|-4"--------------|-----------------|----|-----|-6"--------------|----|-----|

 (Both Gtrs)
|-----------------|------|-------|-----------------|------|-------|-----------------|
|-----------------|------|-------|-----------------|------|-------|-----------------|
|-----------------|--*/--|--*//--|-----------------|--*/--|--*//--|-----------------|
|-----------------|--/*--|--//*--|-----------------|--/*--|--//*--|-7"--------------|
|-2"--------------|------|-------|-6"--------------|------|-------|-5"--------------|
|-0"--------------|------|-------|-4"--------------|------|-------|-----------------|

|-----------------|----|-----|-----------------|----|---------------------------------|
|-----------------|----|-----|-----------------|----|---------------------------------|
|-----------------|-*/-|-*//-|-----------------|-*/-|---------------------------------|
|-7"--------------|-/*-|-//*-|-----------------|-/*-|---------------------------------|
|-5"--------------|----|-----|-8"--------------|----|-\\\\\\\\\\\\\pick\\\\\\\\\\\\\\\|
|-----------------|----|-----|-6"--------------|----|-\\\\\\\\\\\\\slide\\\\\\\\\\\\\\|

play Riff A & A1 2 times
play Riff B
play Riff B & B1 2 times
play Riff B & B2
play Riff B
play Riff B1 & B2

 end with:
|-----------------|
|-----------------|
|-----------------| 
|-2---------------| 
|-2---------------|
|-0---------------|





Comments


Popular Cradle Of Filth tabs & chords
Devil To The Metal Bass Tabs
Hurt And Virtue Intro Bass Tabs
Death Comes Ripping Chords
Cthulhu Dawn 4 Tabs
Devil To The Metal Intro Tabs
Hallowed Be Thy Name 2 Tabs
Her Ghost In The Fog (Solo) Tabs
Her Ghost In The Fog Correct Tabs
Retreat Of The Sacred Heart Tabs
Serpent Tongue 1 Tabs


Song lyrics



↑ Back to top | Tablatures and chords are parodies/interpretations of the original songs. You may use it for private study, scholarship, research or language learning purposes only
© 2014 AZChords.com Contact us | Privacy policy | DMCA | Add/correct tabs | Request tabs | Top 50 tabs