» » »

Cradle Of Filth, Hurt & Virtue Tabs (ver.1)

Artists:  A B C D E F G H I J K L M N O P Q R S T U V W X Y Z # 

Hurt & Virtue Tabs (ver.1)

Cradle Of Filth Tabs
 Rating:
4/5 (4 votes)
Hurt & Virtue lessons Tabs too difficult? Try these video lessons and learn fast
1
                

* - let ring
pm- palm mute


intro: i dont have the chords yet =\
3|-----------------------------------------|
4|-------7-5-7-----7-5-7---------2---3-5---|
5|--0*---------0*----------1-3-5---3-------|  repeat twice
6|--0*---------0*--------------------------|

intro 2  0:10
4|--5--|-------|--8--2----3----|
5|--5--|--16x--|--8--2----3----|
6|--5--|-------|--8--2----3----|

pre verse... im proud of figuring this out :)
3|-------------|----------------|--------------------------------------|
4|-------8-7---|----------------|-------------------7--------8---10----|
5|--0000-------|--repeat-twice--|--5-8-7-8-10-8-7-8---8-7-8----7----7--|
6|--0000-------|----------------|--------------------------------------|
pm  ....                           ..................................

verse  -  slightly diffrent from pre verse
3|------------|----------------|--------------------------------------|
4|------8-7---|----------------|-------------------7--------8----7----|
5|--000-------|--repeat-twice--|--5-8-7-8-10-8-7-8---8-7-8----7----7--|
6|--000-------|----------------|--------------------------------------|
pm  ...                           ..................................


3|-4----4----4----4/5---|------|----------------------|
4|-2----2----2----2/3---|--2x--|--5----5----5----5/6--|
5|----------------------|------|--3----3----3----3/4--|
6|---00---00---00-------|------|----00---00---00------|

0:56  play each chord 32 times fast and muted
3|--5---3--|
4|--5---3--|
5|--5---3--|

thats all for now, i no im not finishing all my tabs but i
            
Submit corrections

comments powered by Disqus
↑ Back to top | Cradle Of Filth Tabs for Hurt & Virtue. Lyrics for acoustic guitar and electric guitar. 1 Tablatures and chords are parodies/interpretations of the original songs. You may use it for private study, scholarship, research or language learning purposes only