» » »

Hurt & Virtue Tabs (ver.2)

Artists:  A B C D E F G H I J K L M N O P Q R S T U V W X Y Z # 

Hurt & Virtue Tabs (ver.2)

Cradle Of Filth
Rating:
0/5 (0 votes)

Hard to play? Try these video lessons and learn fast.
                .  - palm mute                          /  - slide up to
\  - slide down to                      ~  - vibrato

"  - tremelo picking                    () - ghost note
p  - pull off                           h  - hammer-on


Tuning: C-G-C-F-A-D

Riff A(*2)
|--------------------------------------------------|
|--------------------------------------------------|
|:-------------------------------------------------|
|:-----7-9-----7-9-------2-----5-7-----------------|Gtr I (Lead)
|----7-------7-------3-5-----5---------------------|
|--5-------5-------1-------3-----------------------|
|                                                  |
|--------------------------------------------------|
|--------------------------------------------------|
|:-------------------------------------------------|Gtr II
|:-7----------------3-------5----------------------|
|--7----------------3-------5----------------------|
|--5----------------1-------3----------------------|


Riff B (*2) (guitar 1 plays nothing - this sounds ok if u don't have a keyboard player though)
|--------------------------------------------------|
|--13p10--13p10--13p10-13p10--13p10--13p10---------|
|-------9------9------------9------9---------------|Gtr I
|--------------------------------------------------|
|--------------------------------------------------|
|--------------------------------------------------|
|                                                  |
|--------------------------------------------------|
|--------------------------------------------------|
|--------------------------------------------------|Gtr II
|--7----------------------------------7------------|
|--7----------------------------------7------------|
|--5----------------------------------5------------|

|--------------------------------------------------|
|--13p10--13p10--13p--13p12--13p12--13p12----------|
|-------10-----10---10-----12-----12---------------|Gtr I
|--------------------------------------------------|
|--------------------------------------------------|
|--------------------------------------------------|
|                                                  |
|--------------------------------------------------|
|--------------------------------------------------|
|--------------------------------------------------|Gtr II
|--3------------------5----------------------------|
|--3------------------5----------------------------|
|--1------------------3----------------------------|



Riff C
						  pm----- ------- ------- --- ---
|----------------------------------------------------------------------|
|----------------------------------------------------5-------6---5-----|
|---------------5-4~-------------5-4~--5-4-5-7-5-4-5---5-4-5---5---5---|
|-------------------------------------7--------------------------------|
|--0-0-0-0-0-0-------0-0-0-0-0-0---------------------------------------|
|----------------------------------------------------------------------|
Guitar 1 plays this alone first (*2) then Guitar 2 comes in with
(Although it's easy enough to just play both parts on one guitar -
your choice)

						  pm-------------------------------
|----------------------------------------------------------------------|
|---------------5-3~-------------5-3~----------------5-------6---5-----|
|--------------------------------------5-4-5-7-5-4-5---5-4-5---5---5---|
|-------------------------------------7--------------------------------|
|--0-0-0-0-0-0-------0-0-0-0-0-0---------------------------------------|
|----------------------------------------------------------------------|

Riff D (*2)

|----------------------------------------------------------------------|
|-7-----7-----7-----7-8------------------------------------------------|
|-6-----6-----6-----6-7--7-----7-----7-----7--8------------------------|
|------------------------7-----7-----7-----7--8------------------------|
|------------------------5-0-0-5-0-0-5-0-0-5--6------------------------|
|---8-8---8-8---8-8----------------------------------------------------|


Riff E (*2)
pm---------------------------------------------------------------------

|----------------------------------------------------------------------|
|----------------------------------------------------------------------|
|----------------------------------------------------------------------|
|----------------------------------------------------------------------|
|----------------------------------------------------------------------|
|-0-0-0-0-0-0-0-0-0-0-0-0-0-0-0-0-0-0-0-0-0-0-0-0-0-0-0-0-0-0-0-0------|


pm---------------------------------------------------------------------

|----------------------------------------------------------------------|
|----------------------------------------------------------------------|
|----------------------------------------------------------------------|
|----------------------------------------------------------------------|
|-2-2-2-2-2-2-2-2-2-2-2-2-2-2-2-2--------------------------------------|
|---------------------------------1-1-1-1-1-1-1-1-1-1-1-1-1-1-1-1------|


Repeat Riff C (*2) and then (*2) with guitar 2 (as above)

After Riff C guitars have two bars of silence then
Repeat Riff D (*1)

Repeat Riff E (*2)

Riff F(*2)
Guitar 1 (Distorted Flanger)

|----------------------------------------------------------------------|
|----------------------------------------------------------------------|
|---4-4h5-4---2-1p2-1--------------------------------------------------|
|-2-2-2---2-2-2-2-2-2-----7-------3------------------------------------|
|-2-2-2---2-2-2-2-2-2---5---5---3---3----------------------------------|
|-0---------0---------3-------1----------------------------------------|


Riff F(*2)
|----------------------------------------------------------------------|
|--------0------------0----------3-----------1-------------------------|
|--------1------------1----------4-----------2-------------------------|
|-2------2------2-----2-----5----5------3----3-------------------------|
|-2------2------2-----2-----5----5------3----3-------------------------|
|-0-------------0-----------3-----------1------------------------------|


Riff G(*4)
|----------------------------------------------------------------------|
|----------------------------------------------------------------------|
|-4--4--2-/5-4--4-4-4/5-5-5-5/7-7-7-7\5-5-5-5\4-2----------------------|
|-4--4--2-/5-4--4-4-4/5-5-5-5/7-7-7-7\5-5-5-5\4-2----------------------|
|-2--2--0-/3-2--2-2-2/3-3-3-3/5-5-5-5\3-3-3-3\2-0----------------------|
|----------------------------------------------------------------------|


Riff H (*2) (Guitar Lead)
|----------------------------------------------------------------------|
|------------------8----------------------------------10-8-7-8~--------|
|-7-9-11~---7-9-11---11-9h11p9h11p9--7-9-11~---7-9-11------------------|
|----------------------------------------------------------------------|
|----------------------------------------------------------------------|
|----------------------------------------------------------------------|

Rythym Guitar plays a variation of Riff G under this
(Very similar - just listen to the song to pick up the difference)

Riff I (*1) (Guitar Lead)
|----------------------------------------------------------------------|
|----------------------------------------------------------------------|
|--------------6~---------------7~----------------4~--------------9-7-9|
|--4-4-4-4-4-4----5-5-5-5-5-5-5---5---2-2-2-2-2-2---2-5-5-5-5-5-5------|
|----------------------------------------------------------------------|
|----------------------------------------------------------------------|
tremelo pick this bit

Riff J (*1) (Guitar Lead)
|----------------------------------------------------------------------|
|----------------------------------------------------------------------|
|----------------------------------4--6-7-6-7-9-11-9-------------------|
|-7---------------9----------------4--6-7-6-7-9-11-9-------------------|
|-5---------------7----------------2--4-5-4-5-7-9--7-------------------|
|----------------------------------------------------------------------|
tremelo pick the first two chords here

Repeat Riff H (*2)
Repeat Riff I (*1)
Repeat Riff J (*1) (second time play the ending chord progression twice)

Repeat Riff A (*2)
Repeat Riff B (*2)


Riff K(*1 (Guitar Rythym (repeats a variation of this until the end of
the song)

|----------------------------------------------------------------------|
|----------------------------------------------------------------------|
|----------------------------------------------------------------------|
|-7----------3-----5-----2---------------------------------------------|
|-7------7---3-----5-----2---------------------------------------------|
|-5------4---1-----3-----0---------------------------------------------|

Riff H (*2) (Guitar Lead)
|----------------------------------------------------------------------|
|----------------------------------------------------------------------|
|----------------------------------------------------------------------|
|-----7-9------9-10-------2--------------------------------------------|
|---7--------7--------3-5----5-3-2-------------------------------------|
|-5--------4--------1--------------3-----------------------------------|
tremelo pick until the end of the song (last time with flanger - cleaner)
            
Hard to play? Try these video lessons and learn fast. | Correct




comments powered by Disqus
↑ Back to top | Tablatures and chords are parodies/interpretations of the original songs. You may use it for private study, scholarship, research or language learning purposes only