» » »

Funeral In Carpathia Tabs (ver.1)

Artists:  A B C D E F G H I J K L M N O P Q R S T U V W X Y Z # 

Funeral In Carpathia Tabs (ver.1)

Cradle Of Filth
Rating:
0/5 (0 votes)

Hard to play? Try these video lessons and learn fast.
                Funeral in Carpathia (revised) - Cradle of Filth
 `'`'`'`'`'`'`'`'`'`'`'`'`'`'`'`'`'`'`'`'`'`'`'`'
 Well, I finally got around to finishing this (manic cheers). Once again, this
 is practically note-perfect, solos included, except for that really fast riff
 at the end. If anybody has that figured out, I'd really like to see how it's
 played. In spite of that small absence, this should make up for the previous
 typo-ridden attempt ;)

 Anyway, tune down one step and you're set. Seeing as nearly every Filth song
 is tabbed now, I'm going to start on some CoF bass transcriptions until the


  Riff 1a: "Lucretia, is my love in vein..."
 |-----------------------------------------------------------------|
 |-----------------------------------------------------------------|
 |-----------------------------------------------------------------|
 |---2-4-2-5-4-2-4---2-4-2-5-4-2-4---2-4-2-5-4-2-4---2-4-2-5-4-2-4-|
 |-2---------------------------------------------------------------|
 |-----------------5---------------3---------------5---------------|

  Riff 1b:
 |-----------------------------------------------------------------|
 |-----------------------------------------------------------------|
 |-----------------------------------------------------------------|
 |---------5---4-----------5---4-----------5---4-----------5---4---|
 |-2---------------------------------------------------------------|
 |-----------------5---------------3---------------5---------------|


  Riff 2: "Candelabra snuffed, prey - silhouette wedded..."
 |----------------------------------------------------------------------------|
 |----------------------------------------------------------------------------|
 |---------------------------------7--------------7---------------------------|
 |---10-9-7h9p7----10-9-7h9p7---10---10p9-7----10---10-9-10-9-7-9-7----7------|
 |-7----------------------------------------------------------------10---10-9-|
 |--------------10------------8-------------10--------------------------------|


  Riff 3a: "I am He..."           Riff 3b: "Satan robed..."
 |--------------------------|    |--------------------------|
 |--------------------------|    |----------------8---------|
 |----------------7---------|    |---10-9-----------h10-9p7-|
 |---10-9-----------h10-9p7-|    |-7------10-9h10-----------|
 |-7------10-9h10-----------|    |--------------------------|
 |--------------------------|    |--------------------------|


  Riff 4: "This wintry eve..."
 |-----------------|---|-----------------|---|
 |-----------------|---|-----------------|---|
 |-----------------|---|-----------------|---|
 |---7-5-----5-----|-%-|---3-2-----2-----|-%-|
 |-8-----8-7---8-7-|---|-5-----5-3---5-3-|---|
 |-----------------|---|-----------------|---|


  Riff 5a:                  1.                   2.
 |-----------------|---|---|--------------------|------------------|
 |-----------------|---|---|--------------------|------------------|
 |-----------------|---|---|-7---------9-7------|-7----------------|
 |-10-9-7-9-7-9-10-|-%-|-%-|---10-9-10-----10-9-|---10-9-10-9-7----|
 |-----------------|---|---|--------------------|---------------10-|
 |-----------------|---|---|--------------------|------------------|

  Riff 5b:                     1.                        2.
 |--------------------|---|---|-------------------------|---------------------|
 |--------------------|---|---|-10----------12-10-------|-10------------------|
 |-12-11-9-11-9-11-12-|---|---|----12-11-12-------12-11-|----12-11-12-11-9----|
 |--------------------|-%-|-%-|-------------------------|------------------12-|
 |--------------------|---|---|-------------------------|---------------------|
 |--------------------|---|---|-------------------------|---------------------|


  Riff 6: "I rule as master here..."
 |--------------|--------------|--------------|--------------|--------------|
 |--------------|--------------|--------------|--------------|--------------|
 |--------------|--------------|--------------|--------------|--------------|
 |-9------------|-7------------|-5------------|-9------------|-9-10-9-7-9-7-|
 |-7------------|-5------------|-3------------|-9------------|-9-10-9-7-9-7-|
 |-7------------|-5------------|-3------------|-7------------|-7-8--7-5-7-5-|
   hold          hold          hold          hold


  Riff 7a: "Love sank wounded..."       Riff 7b:
 |---------------|---------------|     |---------------|--------------|
 |---------------|---------------|     |---------------|--------------|
 |---------------|---------------|     |---------------|--------7-----|
 |--------7------|--------9------|     |----7-9-10-9-7-|----7-9---9-7-|
 |-7-9-10---10-9-|-7-9-10---10-9-|     |-10------------|-10-----------|
 |---------------|---------------|     |---------------|--------------|


  Riff 8: "Erubescent veil descend..."
 |---------------------|---------------------|---|-----------------------|
 |---------------------|---------------------|---|-----------------------|
 |---------------------|---------------------|---|-----------------------|
 |----------------5----|----------------5-55-|-%-|-7-77-5-55---5---------|
 |-8----7----8---------|-8-88-7-77-8-88------|---|-----------8---8-7-8-7-|
 |---------------------|---------------------|---|-----------------------|


  Riff 9:
 |---------------------|---|---|---------------------|
 |---------------------|---|---|---------------------|
 |---------------------|---|---|---------------------|
 |------7----5----7----|-%-|-%-|---8-7-5-7-5---5-----|
 |-5-------------------|---|---|-8-----------8---8-7-|
 |---------------------|---|---|---------------------|


  First solo: The rhythm section is denoted by letter chords above the
   lead tab. The chords themselves are tabbed at the end of the file for
   those who need them. Timing is approximate only.

   E     E E E     E     E E E       C      C C C      C      C C C
 |-9-------9-------9-------9-------|-------------------------------------|
 |---10------10------10------10----|-10-------10-------10-------10-------|
 |------11------11------11------11-|----11-------11-------11-------11----|
 |---------------------------------|-------12-------12-------12-------12-|
 |---------------------------------|-------------------------------------|
 |---------------------------------|-------------------------------------|

   E     E E E     E     E E E       C      C C C      C      C C C
 |-9-------9-------9-------9-------|-------------------------------------|
 |---10------10------10------10----|-10-------10-------10-------10-------|
 |------11------11------11------11-|----11-------11-------11-------11----|
 |---------------------------------|-------12-------12-------12-------12-|
 |---------------------------------|-------------------------------------|
 |---------------------------------|-------------------------------------|

   E     E E E     E     E E E       D   D D D   D   D D D
 |-9-------9-------9-------9-------|-7-----7-----7-----7-----|
 |---10------10------10------10----|---9-----9-----9-----9---|
 |------11------11------11------11-|-----9-----9-----9-----9-|
 |---------------------------------|-------------------------|
 |---------------------------------|-------------------------|
 |---------------------------------|-------------------------|

   G  GGG  G  GGG   F#    F
 |-9-------9h10p9-|-7-----9---10---|
 |----------------|----------------|
 |----------------|----------------|
 |----------------|----------------|
 |----------------|----------------|
 |----------------|----------------|


 Second solo: Once again, the rhythm section is denoted via letter chords with
  only apporximate timing.
   E  EEE  E  EEE   C  CCC  C  CCC   E  EEE  E  EEE   C  CCC  C  CCC
 |-9-------9h10p9-|-------7---10---|-9-------9h10p9-|-------7---10---|
 |----------------|-10-------------|----------------|-10-------------|
 |----------------|----------------|----------------|----------------|
 |----------------|----------------|----------------|----------------|
 |----------------|----------------|----------------|----------------|
 |----------------|----------------|----------------|----------------|
   E  EEE  E  EEE   D  DDD  D  DDD   G  GGG  G  GGG   F#     F
 |-9--------------|-7--------------|-12-------------|-11-----10------|--
 |----------------|----------------|----------------|----------------|--
 |----------------|----------------|----------------|----------------|--
 |----------------|----------------|----------------|----------------|--
 |----------------|----------------|----------------|----------------|--
 |----------------|----------------|----------------|----------------|--
  After this point you're just repeating the entire first solo so I
  haven't bothered to tab it. Just append them and play.


 Letter chord tablature:
   E    C    D    G    F#   F
 |----------------------------|
 |----------------------------|
 |----------------9----8----7-|
 |-11---7----9----7----6----5-|
 |-9----5----7----7----6----5-|
 |-9----5----7----------------|


 Song Structure:
  - (1) Riff 1a x2
    (2) Riff 1b x2
  - (b) Riff 2 x2
  - (1) Riff 1a x2
    (2) Riff 1b x2
  - (1) Riff 3a x2
  - (1) Riff 3a x2
    (2) Riff 3b x2
    Repeat this structure once more
  - (b) Riff 4 x2
  - (b) Riff 5a x2 alternating between the bars marked 1. and 2. as endings
  - (1) Riff 5a x2 alternating between the bars marked 1. and 2. as endings
    (2) Riff 5b x2 alternating between the bars marked 1. and 2. as endings
  - First solo
    Omit the rhythm section under the first lead bar the first time only
  - (b) Riff 4 x2

 Interlude structure:
  - Keyboards with a D chord sustained for the first four bars
  - (b) Riff 6 x1
  - (b) Riff 7a x4
  - (b) Riff 6 x1
  - (1) Riff 8 x1
    (2) Riff 6 x1
  - (1) Riff 9 x1
    (2) Riff 7a x4
  - (b) Riff 7a x3 then Riff 7b x1

 Back to the song:
  - Second solo
  - Mystery Riff x2
  - (b) Riff 4 x2
  - (b) Riff 2 x2
            
Hard to play? Try these video lessons and learn fast. | Correct




comments powered by Disqus
↑ Back to top | Tablatures and chords are parodies/interpretations of the original songs. You may use it for private study, scholarship, research or language learning purposes only