>
 >
Funeral In Carpathia 1

Funeral In Carpathia 1 Guitar Tabs

Cradle Of Filth - Funeral In Carpathia 1 chords, tabs, tablatures, lyrics

Guitar lessons | Add/correct | Request | Top 50 tabs Artists:  A B C D E F G H I J K L M N O P Q R S T U V W X Y Z 0-9

Funeral In Carpathia 1 Guitar Tabs – Cradle Of Filth

CD, Sheet music, Poster

Do you like Funeral In Carpathia 1? Share with your friends now
TabsTabs v2
CRADLE OF FILTH
'Funeral In Carpathia'




Zim-Zum5





Okay, the first thing to know is that you have to tune down one step, E to D
and so on, if you wanna play this transcription along with the recording.
It is possible to play this tune in standard, but it's a pain in the arse.
To complicate things even more, I've only tabbed Riff 1 in D, the rest of
the tab is in standard tuning. Just take it all down two frets.


  Riff 1:
  (guitar one) Tremelo pick every note-----------------------------]
|-----------------------------------------------------------------|
|-----------------------------------------------------------------|
|-----------------------------------------------------------------|
|---2-4-2-5-4-2-4---2-4-2-5-4-2-4---2-4-2-5-4-2-4---2-4-2-5-4-2-4-|
|-2---------------------------------------------------------------|
|-----------------5---------------3---------------5---------------|

  (guitar two)
|-----------------------------------------------------------------|
|-----------------------------------------------------------------|
|-----------------------------------------------------------------|
|-9---------------7---------------5---------------7---------------|
|-9---------------7---------------5---------------7---------------|
|-7---------------5---------------3---------------5---------------|


  Riff 2:
  (both guitars) Tremelo pick every note------|
|------------------------------------------------------------------------|
|------------------------------------------------------------------------|
|-------------------------------5---------------5------------------------|
|---8-7-5-----8-7-5h7-5------8-----8p7-5-----8----8-7-8-7-5-7-5---5------|
|-5--------------------------------------------------------------8---8-7-|
|----------8--------------6----------------8-----------------------------|


  Riff 3a:                    Riff 3b:
  (guitar one) Tremelo pick       (guitar two) Tremelo pick
|---------------------------|   |-------------------------|
|---------------------------|   |---------------4---------|
|-----------------3---------|   |---6--5-----------6-5p3--|
|---6-5--------------6-5p3--|   |-3-------6--5h6----------|
|-3------6---5h6------------|   |-------------------------|
|---------------------------|   |-------------------------|


  Riff 4:
  (both guitars)Tremelo pick every note------|
|-----------------|---|-----------------|---|
|-----------------|---|-----------------|---|
|-----------------|---|-----------------|---|
|---5-3-----3-----|-|---1-0-----0-----|-|
|-6-----6-5---6-5-|---|-3-----3-1---3-1-|---|
|-----------------|---|-----------------|---|


  Riff 5a:
  (guitar one)
|-------------------|-----------------|-----------------|
|-------------------|-----------------|-----------------|
|-------------------|-----------------|-----------------|
|-5-8--7-5-7-5-7-8--|-8--7-5-7-5-7-8--|-8--7-5-7-5-7-8--|
|-------------------|-----------------|-----------------|
|-------------------|-----------------|-----------------|

  End #1:                     End #2:
|---------------------|     |------------------|
|---------------------|     |------------------|
|-5---------7--5------|     |-5----------------|
|---8--7-8-------8--7-|     |---8--7-8--7-5----|
|---------------------|     |---------------8--|
|---------------------|     |------------------|


  Riff 5b:
  (guitar two)
|-------------------|-----------------|-----------------|
|-------------------|-----------------|-----------------|
|-7-10-9-7-9-7-9-10-|-10-9-7-9-7-9-10-|-10-9-7-9-7-9-10-|
|-------------------|-----------------|-----------------|
|-------------------|-----------------|-----------------|
|-------------------|-----------------|-----------------|

  End #1:                     End #2:
|---------------------|     |------------------|
|-8---------10-8------|     |-8----------------|
|---10-9-10------10-9-|     |---10-9-10-9-7----|
|---------------------|     |---------------10-|
|---------------------|     |------------------|
|---------------------|     |------------------|


  Riff 6:
  (either guitar)
|---|---|---|---|---|---|---|--------|
|---|---|---|---|---|---|---|--------|
|---|---|---|---|---|---|-7-|-6----5-|
|-9-|-5-|-9-|-5-|-9-|-7-|-5-|-4----3-|
|-7-|-3-|-7-|-3-|-7-|-5-|-5-|-4----3-|
|-7-|-3-|-7-|-3-|-7-|-5-|---|--------|
                               hold hold


  Riff 7:
|-----------------------------|
|-----------------------------|
|-----------------------------|
|-7---5---3---7---7-8-7-5-7-5-|
|-5---3---1---7---7-8-7-5-7-5-|
|-5---3---1---5---5-6-5-3-5-3-|


  Riff 8a:                        Riff 8b:
|-------------------------|     |-------------------------|
|-------------------------|     |-------------------------|
|-------------------------|     |-------------------5-----|
|-------5-----------7-----|     |---5-7-8-7-5---5-7---7-5-|
|-5-7-8---8-7-5-7-8---8-7-|     |-8-----------8-----------|
|-------------------------|     |-------------------------|


  Riff 9:
|---------|---------------------|---|-----------------------|
|---------|---------------------|---|-----------------------|
|---------|---------------------|---|-----------------------|
|-------5-|----------------5-55-|-|-7-77-5-55---5---------|
|-8-7-8---|-8-88-7-77-8-88------|---|-----------8---8-7-8-7-|
|---------|---------------------|---|-----------------------|


  Riff 10:
|---------|---|---|---------------------|
|---------|---|---|---------------------|
|---------|---|---|---------------------|
|---7-5-7-|-|-|---8-7-5-7-5---5-----|
|-5-------|---|---|-8-----------8---8-7-|
|---------|---|---|---------------------|


Song Structure:
  - Riff 1 x2 (tremelo picking)
  - Riff 2 x2 (tremelo picking)
  - Riff 1 x2 (tremelo picking)
  - Riff 3a x2 then Riff 3a + Riff 3b x2
    Repeat this pattern once more
  - Riff 4 x2
  - Riff 5a x2 alternating between End #1 and End #2
    Riff 5a + 5b x2 alternating between their respective End #1 and End #2
  - Riff 6 x2 with first solo (not transcribed)
    Remember to omit the first E chord when you play the first bar
  - Riff 4 x2

Interlude structure:
  - D chord held for 4 bars of what sounds like 6/8 time
  - Both guitars play Riff 7 x1
  - Both guitars play Riff 8a x4
  - Both guitars play Riff 7 x1
  - Guitar one plays Riff 9 x1
    whilst guitar two plays Riff 7 x1
  - Guitar one plays Riff 10 x1
    whilst guitar two plays Riff 8a x4
  - Both guitars play Riff 8a x3 + Riff 8b x1

Back to the song:
  - Riff 6 x2 with second solo (not transcribed)
  - Wierd fast bit that I haven't even thought about yet x2
  - Riff 4 x2
  - Riff 2 x2
  ... and that's more or less it.





Comments


Popular Cradle Of Filth tabs & chords
Twisted Nails Of Faith Bass Tabs
A Dream Of Wolves In The Snow 1 Tabs
All Hope In Eclipse 1 Tabs
Beyond Eleventh Hour Tabs
Bleeding In Heaven Tabs
Coffin Fodder Tabs
Medusa And Hemlock Tabs
Nevermore 2 Tabs
Rise Of The Pentagram Tabs
Under Huntress Moon Tabs


Song lyrics



↑ Back to top | Tablatures and chords are parodies/interpretations of the original songs. You may use it for private study, scholarship, research or language learning purposes only
© 2014 AZChords.com Contact us | Privacy policy | DMCA | Add/correct tabs | Request tabs | Top 50 tabs