>
 >
Cthulhu Dawn

Cthulhu Dawn Guitar Tabs

Cradle Of Filth - Cthulhu Dawn chords, tabs, tablatures, lyrics

Guitar lessons | Add/correct | Request | Top 50 tabs Artists:  A B C D E F G H I J K L M N O P Q R S T U V W X Y Z 0-9

Cthulhu Dawn Guitar Tabs – Cradle Of Filth

CD, Sheet music, Poster

Do you like Cthulhu Dawn? Share with your friends now
Bass TabsBass Tabs v2TabsTabs v2Tabs v3Tabs v4Tabs v5
I hope you got it.... i wrote it in word... so that's why it{s awfull
Tuning: D G C F A D

Listen to the song to get the rhythm.


Riff A (2x) (0:00):
D------------------------------|---------------------|
A------------------------------|---------------------|
F------------------------------|---------------------|
C-------------------7-5-7-7/10-|-10-10-10-10---------|
G-0-7-8-7---7-8-7-5------------|--8--8--8--8-6-6-6-6-|     / = Slide Up
D---------4--------------------|-------------4-4-4-4-|     + = Tremolo Picking
  + + + + + + + + + + + +


Riff B (2x) (0:15):
D-----------------------------------------|-----------------------------------------|
A-----------------------------------------|-----------------------------------------|
F-----------------------------------------|-----------------------------------------|
C-7h10p9h10-7h10p9h10-7h10p9h10-7h10p9h10-|-6h10p9h10-6h10p9h10-6h10p9h10-6h10p9h10-|
G-----------------------------------------|-----------------------------------------|     h = Hammer-on
D-----------------------------------------|-----------------------------------------|     p = Pull-off

D-----------------------------------------|------------------------------------|
A-----------------------------------------|-6h9p8h9-6h9p8h9-6h9p8h9-9h12p11h12-|
F-7h10p9h10-7h10p9h10-7h10p9h10-7h10p9h10-|------------------------------------|
C-----------------------------------------|------------------------------------|
G-----------------------------------------|------------------------------------|
D-----------------------------------------|------------------------------------|


Play RIFF A (2x) (0:29)


Riff C (4x; on 4th time, play half and end with pickslide) (00:43):
D-------------------------------------|
A-------------------------------------|
F-------------------------------------|
C---------------------------------4-7-|
G-5/4-----54-----54-----54-----2-5----|      = Slide Down
D-3/2-2-2-32-2-2-32-2-2-32-2-2--------|     . = Palm Mute
      . .     . .     . .     . . + +  


Riff D (1:04):             Riff E (2x) (1:12)
D------------------|       D-------------------------|
A------------------|       A-------------------------|
F------------------|       G-------------------------|
C-----8-10-8-7-----|       C-6---------6---------6/7-|
G-7-8----------7-8-|       G-4-4-4-4-4-4-4-4-4-4-4/5-|
D------------------|       D-------------------------|
  + + +  + + + + +             . . . .   . . . .


Play RIFF D (1:15), then RIFF E (2x) (1:23)


(GUITARS REST FOR 2 BARS)


Play RIFF B (2x) (1:40), then RIFF A (2x) (1:54)


Play RIFF C (4x) (2:08), then RIFF E (2x) (2:29)


Play RIFF D (2:32), then RIFF E (2x) (2:39)


Play RIFF D (2:42), then RIFF E (2x) (2:50)


Riff F (4x) (2:53):       Riff G (2:56)
D---------------|         D-----------------|
A---------------|         A-----------------|
F---------------|         F-----------------|
C-----2h3p2h3p2-|         C-5-5-5-6-5-4-4-4-|
G-0-0-----------|         G-3-3-3-4-3-2-2-2-|
D---------------|         D-----------------|
  . . 


Play RIFF F (4x) (2;58), then RIFF G (3:01)


Riff H (4x) (3:03):         Riff I (4x) (3:06)           Riff J (4x) (3:09):       Riff K (4x) (3:11): 
D---------------|           D--------------------|       D---------|               D---------|
A---------------|           A--------------------|       A---------|               A---------|
F---------------|           F--------------------|       F---------|               F---------|
C-7h8p7h8p7-----|           C-10h11p10h11p10-----|       C---------|               C---------|
G-----------0-0-|           G----------------0-0-|       G-8-10-11-|               G-7-10-11-|
D---------------|           D--------------------|       D---------|               D---------|
            . .                              . .           +  +  +                   +  +  +


Play RIFF H (4x) (3:14), then RIFF I (4x) (3:17)


Play RIFF J (4x) (3:19), then RIFF K (4x) (3:22)


(GUITARS REST FOR 2 BARS)


Play RIFF A (2x) (3:39) [Slowly]


Riff L (3:55) [Very Slowly]:
D----------------------------------------------------|
A----------------------------------------------------|
F----------------------------------------------------|
C-------------------------10-8-10--------------------|
G---10-11-10---10-11-10-8---------6-6-6-6-9-9-9-9-10-|
D-8----------7--------------------4-4-4-4-7-7-7-7-8--|
  +  +  +  + +  +  +  + +  + +  +


great song...

kenneth cerda. managua, nicaragua





Comments


Popular Cradle Of Filth tabs & chords
Cthulhu Dawn Bass Tabs
Nocturnal Sumpremacy Bass Tabs
The Black Goddess Rises Ii Bass Tabs
Cthulhu Dawn 2 Tabs
Foetus Of A New Day Kicking 3 Tabs
Forgive Me Father I Have Sinned Tabs
Her Ghost In The Fog (Intro) Tabs
Midnight Shadows Crawl To Darken Counsel With Life Tabs
Nymphetamine 1 Tabs
The Black Goddess Rises Ii Tabs


Song lyrics



↑ Back to top | Tablatures and chords are parodies/interpretations of the original songs. You may use it for private study, scholarship, research or language learning purposes only
© 2014 AZChords.com Contact us | Privacy policy | DMCA | Add/correct tabs | Request tabs | Top 50 tabs