» » »

Cthulhu Dawn Bass tabs (ver.1)

Artists:  A B C D E F G H I J K L M N O P Q R S T U V W X Y Z # 

Cthulhu Dawn Bass tabs (ver.1)

Cradle Of Filth
Rating:
0/5 (0 votes)

Hard to play? Try these video lessons and learn fast.
                Name of band: Cradle of filth  
Name of song: Cthulhu dawn 
4 String bass 

Verse 1
G|-----------------------------------------------------------|
D|-------------------5-3-5------------------------5-3-5------|
A|---5-6-5---5-6-5-3-------6-9----5-6-5---5-6-5-3-------6-9--|
E|-3-------2--------------------3-------2--------------------|

G|-----------------------------------------------------------|
D|-------------------5-3-5------------------------5-3-5------|
A|---5-6-5---5-6-5-3-------6-9----5-6-5---5-6-5-3-------6-9--|
E|-3-------2--------------------3-------2--------------------|

G|-----------------------------------------------------------|
D|-------------------5-3-5------------------------5-3-5------|
A|---5-6-5---5-6-5-3-------6-9----5-6-5---5-6-5-3-------6-9--|
E|-3-------2--------------------3-------2--------------------|

G|-----------------------------------------------------------|
D|-----------------------------------------------------------|
A|-------------------------1--5-------------------------1--5-|
E|-2-2-3-2-2-3-2-2-3-2-2-3------2-2-3-2-2-3-2-2-3-2-2-3------|

G|-----------------------------------------------------------|
D|-----------------------------------------------------------|
A|-------------------------1--5-------------------------1--5-|
E|-2-2-3-2-2-3-2-2-3-2-2-3------2-2-3-2-2-3-2-2-3-2-2-3------|

G|-----------------------------------------------------------|
D|-----6-6H8-5-----6-6H8-5-----------------------------------|
A|-5-6---------5-6-------------------------------------------|
E|-------------------------44-444-44-------------------------|

G|-----------------------------------------------------------|
D|-----6-6H8-5-----6-6H8-5-----------------------------------|
A|-5-6---------5-6-------------------------------------------|
E|-------------------------44-444-44-------------------------|

G|-----------------------------------------------------------|
D|-----------------------------------------------------------|
A|-----------------------------------------------------------|
E|-3-3-3-3-2-2-2-2-6-6-6-6-9-9-10-10-3-3-3-3-2-2-2-2-6-6-6-6-|
----------|
----------|
----------|
9-9-10-10-|

G|-----------------------------------------------------------|
D|-----------------------------------------------------------|
A|-----------------------------------------------------------|
E|-3-3-3-3-2-2-2-2-6-6-6-6-9-9-10-10-3-3-3-3-2-2-2-2-6-6-6-6-|
----------|
----------|
----------|
9-9-10-10-|

G|-----------------------------------------------------------|
D|-------------------5-3-5------------------------5-3-5------|
A|---5-6-5---5-6-5-3-------6-9----5-6-5---5-6-5-3-------6-9--|
E|-3-------2--------------------3-------2--------------------|

G|-----------------------------------------------------------|
D|-----------------------------------------------------------|
A|-------------------------1--5-------------------------1--5-|
E|-2-2-3-2-2-3-2-2-3-2-2-3------2-2-3-2-2-3-2-2-3-2-2-3------|

G|-----------------------------------------------------------|
D|-----------------------------------------------------------|
A|-------------------------1--5-------------------------1--5-|
E|-2-2-3-2-2-3-2-2-3-2-2-3------2-2-3-2-2-3-2-2-3-2-2-3------|
----------|
----------|
----------|
444-444---|

G|-----------------------------------------------------------|
D|-----6-6H8-5-----6-6H8-5-----------------------------------|
A|-5-6---------5-6-------------------------------------------|
E|-------------------------44-444-44-------------------------|

G|-----------------------------------------------------------|
D|-----6-6H8-5-----6-6H8-5-----------------------------------|
A|-5-6---------5-6-------------------------------------------|
E|-------------------------44-444-44-------------------------|

G|-----------------------------------------------------------|
D|-----------------------------------------------------------|
A|-----------------------------------------------------------|
E|-8-10-10-8-10-7-9-9-7-9--8-10-10-8-10-7-9-9-7-9------------|

G|-----------------------------------------------------------|
D|-----------------------------------------------------------|
A|-----------------------------------------------------------|
E|-8-10-10-8-10-7-9-9-7-9--8-10-10-8-10-7-9-9-7-9------------|

G|-----------------------------------------------------------|
D|-----6-6H8-5-----6-6H8-5-----------------------------------|
A|-5-6---------5-6-------------------------------------------|
E|-------------------------44-444-44-------------------------|

G|-----------------------------------------------------------|
D|-----6-6H8-5-----6-6H8-5-----------------------------------|
A|-5-6---------5-6-------------------------------------------|
E|-------------------------44-444-44-------------------------|

G|-----------------------------------------------------------|
D|-------------------5-3-5------------------------5-3-5------|
A|---5-6-5---5-6-5-3-------6-9----5-6-5---5-6-5-3-------6-9--|
E|-3-------2--------------------3-------2--------------------|

G|-----------------------------------------------------------|
D|-------------------5-3-5-----------------------------------|
A|---5-6-5---5-6-5-3-------6-9-10----------------------------|
E|-3-------2-------------------------------------------------|
            
Hard to play? Try these video lessons and learn fast. | Correct




comments powered by Disqus
↑ Back to top | Tablatures and chords are parodies/interpretations of the original songs. You may use it for private study, scholarship, research or language learning purposes only