» » »

Cradle Of Filth, Cemetery And Sundown Tabs (ver.3)

Artists:  A B C D E F G H I J K L M N O P Q R S T U V W X Y Z # 

Cemetery And Sundown Tabs (ver.3)

Cradle Of Filth Tabs
Rating:
0/5 (0 votes)
Cemetery And Sundown lessons Tabs too difficult? Try these video lessons and learn fast
                my first tab so here goes!

Cradle of Filth
Cemetery and Sundown



e|---------------------------------------------------------|
B|---------------------------------------------------------|
G|-5-5-5-5-8-8-5---------------8-8-8-8-8-8-7-7-7-8-8-7-8-7-|
D|---------------5-5-5-5-6-6-6-----------------------------|
A|---------------------------------------------------------|
D|---------------------------------------------------------|

e|------------------------------------------------------------|
B|------------------------------------------------------------|
G|-5-5-5-5-8-8-5---------------------------8-8-8-4-4-4-4-4-5\-|
D|---------------5-5-5-5-6-6-6-8-8-8-8-8-8--------------------|
A|------------------------------------------------------------|
D|------------------------------------------------------------|

We rise with the sun in the underworld
We suffer from a graveless name we prise
wide lips and wounds where lips curl 
over teeth that have tasted shame

Cemetery and Sundown

(If anyone knows what the little solo is bit please tell me because I have no idea)

       *--pm-*       *-pm-*      *--pm--*
e|-----------------------------------------|     e|------------------------------|
B|-----------------------------------------|     B|------------------------------|
G|-----------------------------------------|     G|------------------------------|
D|-----------------------------------------| x2  D|------------------------------|
A|-1-0-0-0-0-0---1-0-0-3-4---1-0-0-0-0-0---|     A|-0-0-0-0-11\----0-0-0-0-11\---|
D|-1-0-0-0-0-0---1-0-0-3-4---1-0-0-0-0-0---|     D|-0-0-0-0-11\----0-0-0-0-11\---|

against the flora of nightfall 
we gather like the fauna of war
to curse an aurora so spiteful
with her stake in the coming of dawn

       *--pm-*       *-pm-*      *--pm--*
e|-----------------------------------------|     e|------------------------------|
B|-----------------------------------------|     B|------------------------------|
G|-----------------------------------------|     G|------------------------------|
D|-----------------------------------------| x2  D|------------------------------|
A|-1-0-0-0-0-0---1-0-0-3-4---1-0-0-0-0-0---|     A|-0-0-0-0-11\----0-0-0-0-11\---|
D|-1-0-0-0-0-0---1-0-0-3-4---1-0-0-0-0-0---|     D|-0-0-0-0-11\----0-0-0-0-11\---|

to conjure forth the past
those heady nights of pain resplendent
in the service of the Godess of Death
with her sheets ran royalty-red

                 *pm*
e|------------------------------------------------|
B|------------------------------------------------|
G|------------------------------------------------|
D|------------------------------------------------| x4
A|-11-10-9-9h10---0-3-2---11-10-9-5-5-5-5-6-6-6-6-|
D|-11-10-9-9h10---0-3-2---11-10-9-5-5-5-5-6-6-6-6-|

Moons lengthen our crypt-kept silhouettes 
shadows dance, eyes flicker in decent
unevil the greed, our needs are bitter, spent
on upturned mouths and haunts of wickedness


e|---------------------------------------------------------|
B|---------------------------------------------------------|
G|-5-5-5-5-8-8-5---------------8-8-8-8-8-8-7-7-7-8-8-7-8-7-|
D|---------------5-5-5-5-6-6-6-----------------------------|
A|---------------------------------------------------------|
D|---------------------------------------------------------|

e|------------------------------------------------------------|
B|------------------------------------------------------------|
G|-5-5-5-5-8-8-5---------------------------8-8-8-4-4-4-4-4-5\-|
D|---------------5-5-5-5-6-6-6-8-8-8-8-8-8--------------------|
A|------------------------------------------------------------|
D|------------------------------------------------------------|

we walk this eden a secret
faces hidden under leonine pride
in dusks embrace
we find it hard to keep it
when blood and lust and waking worlds collide

Cemetery and Sundown

       *--pm-*       *-pm-*      *--pm--*
e|-----------------------------------------|     e|------------------------------|
B|-----------------------------------------|     B|------------------------------|
G|-----------------------------------------|     G|------------------------------|
D|-----------------------------------------| x2  D|------------------------------|
A|-1-0-0-0-0-0---1-0-0-3-4---1-0-0-0-0-0---|     A|-0-0-0-0-11\----0-0-0-0-11\---|
D|-1-0-0-0-0-0---1-0-0-3-4---1-0-0-0-0-0---|     D|-0-0-0-0-11\----0-0-0-0-11\---|

too long have we skulked like drifters
in the cities of the neon sun
vagabond dogs and graveyard shifters
mona lisas where the paint has run

       *--pm-*       *-pm-*      *--pm--*
e|-----------------------------------------|     e|------------------------------|
B|-----------------------------------------|     B|------------------------------|
G|-----------------------------------------|     G|------------------------------|
D|-----------------------------------------| x2  D|------------------------------|
A|-1-0-0-0-0-0---1-0-0-3-4---1-0-0-0-0-0---|     A|-0-0-0-0-11\----0-0-0-0-11\---|
D|-1-0-0-0-0-0---1-0-0-3-4---1-0-0-0-0-0---|     D|-0-0-0-0-11\----0-0-0-0-11\---|

i miss our gloriuos past
our nightly flights on fear dependent
phantoms in the eaves of Miss Christine
when the song bird broke her neck


                 *pm*
e|------------------------------------------------|
B|------------------------------------------------|
G|------------------------------------------------|
D|------------------------------------------------| x4
A|-11-10-9-9h10---0-3-2---11-10-9-5-5-5-5-6-6-6-6-|
D|-11-10-9-9h10---0-3-2---11-10-9-5-5-5-5-6-6-6-6-|

wolves howl thier fodbound serenades
churches arch thier backs with balustrades
praise be to the shedding of masquerades
when we hunt these vestal vermin unafraid

of the covenant made

e|--------------------------------------------|
B|--------------------------------------------|
G|--------------------------------------------|
D|-7-7-8-7-8-7-8-7-5-8-7--7-8-7-8-7-8-7-8-10--| x4   there is a palm muted low 
A|-5-5-6-5-6-5-6-5-3-6-5--5-6-5-6-5-6-5-6-8---|      open D behind that riff.
D|--------------------------------------------|

draw the blinds on the floors of raw meat  ]  lyrics come in after the sceond time  
there is murder in the thirst              ]  of playing. they are
                                              only there for one complete rff. 





     *-pm--*    *-pm--*    *------pm---------*
e|----------------------------------------------|
B|----------------------------------------------|
G|----------------------------------------------|
D|----------------------------------------------|
A|-7-7-7-7-7--6-6-6-6-6--3-3-3-3-3-3-3-3-3-3-3--|
D|-7-7-7-7-7--6-6-6-6-6--3-3-3-3-3-3-3-3-3-3-3--|

rich red vascular tapestries

     *-pm--*    *-pm--*    *-------------pm-------------*
e|---------------------------------------------------------|
B|---------------------------------------------------------|
G|---------------------------------------------------------|
D|---------------------------------------------------------|
A|-7-7-7-7-7--6-6-6-6-6--10-10-10-10-10-10-10-10-10-10-10--|
D|-7-7-7-7-7--6-6-6-6-6--10-10-10-10-10-10-10-10-10-10-10--|

hung in gilded frames of nuns asleep


     *-pm--*    *-pm--*    *------pm---------*
e|----------------------------------------------|
B|----------------------------------------------|
G|----------------------------------------------|
D|----------------------------------------------|
A|-7-7-7-7-7--6-6-6-6-6--3-3-3-3-3-3-3-3-3-3-3--|
D|-7-7-7-7-7--6-6-6-6-6--3-3-3-3-3-3-3-3-3-3-3--|

in dreams where themes of bestiality

     *-pm--*    *-pm--*    
e|---------------------------------------------------|
B|---------------------------------------------------|
G|---------------------------------------------------|
D|---------------------------------------------------|
A|-7-7-7-7-7--6-6-6-6-6--10-10-10-10-10-10-10-10-10--|
D|-7-7-7-7-7--6-6-6-6-6--10-10-10-10-10-10-10-10-10--|

are a blessing on the Sunday sheep


e|--------------------------------------------|
B|--------------------------------------------|
G|--------------------------------------------|
D|-7-7-8-7-8-7-8-7-5-8-7--7-8-7-8-7-8-7-8-10--| x2
A|-5-5-6-5-6-5-6-5-3-6-5--5-6-5-6-5-6-5-6-8---|
D|--------------------------------------------|

sermons hang a black gown
over cemetery and sundown


       *--pm-*       *-pm-*      *--pm--*
e|-----------------------------------------|     e|------------------------------|
B|-----------------------------------------|     B|------------------------------|
G|-----------------------------------------|     G|------------------------------|
D|-----------------------------------------| x2  D|------------------------------|
A|-1-0-0-0-0-0---1-0-0-3-4---1-0-0-0-0-0---|     A|-0-0-0-0-11\----0-0-0-0-11\---|
D|-1-0-0-0-0-0---1-0-0-3-4---1-0-0-0-0-0---|     D|-0-0-0-0-11\----0-0-0-0-11\---|

now the clock is harrying midnight
and the ghost of yet-to-come 
will she show re-writes of dark delight
or the sewers we've overrun?

       *--pm-*       *-pm-*      *--pm--*
e|-----------------------------------------|     e|------------------------------|
B|-----------------------------------------|     B|------------------------------|
G|-----------------------------------------|     G|------------------------------|
D|-----------------------------------------| x2  D|------------------------------|
A|-1-0-0-0-0-0---1-0-0-3-4---1-0-0-0-0-0---|     A|-0-0-0-0-11\----0-0-0-0-11\---|
D|-1-0-0-0-0-0---1-0-0-3-4---1-0-0-0-0-0---|     D|-0-0-0-0-11\----0-0-0-0-11\---|

i see a winter palace
cut diamonds at a porcelain neck
when swan lake crushed poor sanitys spirit
as i threw her to it bled


e|---------------------------------------------------------|
B|---------------------------------------------------------|
G|-5-5-5-5-8-8-5---------------8-8-8-8-8-8-7-7-7-8-8-7-8-7-|
D|---------------5-5-5-5-6-6-6-----------------------------|
A|---------------------------------------------------------|
D|---------------------------------------------------------|

e|------------------------------------------------------------|
B|------------------------------------------------------------|
G|-5-5-5-5-8-8-5---------------------------8-8-8-4-4-4-4-4-5\-|
D|---------------5-5-5-5-6-6-6-8-8-8-8-8-8--------------------|
A|------------------------------------------------------------|
D|------------------------------------------------------------|

e|---------------------------------------------------------|
B|---------------------------------------------------------|
G|-5-5-5-5-8-8-5---------------8-8-8-8-8-8-7-7-7-8-8-7-8-7-|
D|---------------5-5-5-5-6-6-6-----------------------------|
A|---------------------------------------------------------|
D|---------------------------------------------------------|

e|------------------------------------------------------------|
B|------------------------------------------------------------|
G|-5-5-5-5-8-8-5---------------------------8-8-8-4-4-4-4-4-5\-|
D|---------------5-5-5-5-6-6-6-8-8-8-8-8-8--------------------|
A|------------------------------------------------------------|
D|------------------------------------------------------------|

We rise with the sun in the underworld 
We suffer from a graveless name 
We prise wide lids 
And wounds with lips curled 
Over teeth that have tasted shame 

e|---------------------------------------------------------|
B|---------------------------------------------------------|
G|-5-5-5-5-8-8-5---------------8-8-8-8-8-8-7-7-7-8-8-7-8-7-|
D|---------------5-5-5-5-6-6-6-----------------------------|
A|---------------------------------------------------------|
D|---------------------------------------------------------|

e|------------------------------------------------------------|
B|------------------------------------------------------------|
G|-5-5-5-5-8-8-5---------------------------8-8-8-4-4-4-4-4-5\-|
D|---------------5-5-5-5-6-6-6-8-8-8-8-8-8--------------------|
A|------------------------------------------------------------|
D|------------------------------------------------------------|

We walk this Eden, a secret 
Faces hidden under Leonine pride 
In dusk's embrace 
We find it hard to keep it 
When blood and lust and waking world collide

e|---------------------------------------------------------|
B|---------------------------------------------------------|
G|-5-5-5-5-8-8-5---------------8-8-8-8-8-8-7-7-7-8-8-7-8-7-|
D|---------------5-5-5-5-6-6-6-----------------------------|
A|---------------------------------------------------------|
D|---------------------------------------------------------|

e|------------------------------------------------------------|
B|------------------------------------------------------------|
G|-5-5-5-5-8-8-5---------------------------8-8-8-4-4-4-4-4-5\-|
D|---------------5-5-5-5-6-6-6-8-8-8-8-8-8--------------------|
A|------------------------------------------------------------|
D|------------------------------------------------------------|


and thats it apart from the little solo bit. im pretty sure its right.
if anyone knows the little solo bit or finds any problems tell me at

Enjoy!
            
Submit corrections

comments powered by Disqus
↑ Back to top | Cradle Of Filth Tabs for Cemetery And Sundown. Lyrics for acoustic guitar and electric guitar. Tablatures and chords are parodies/interpretations of the original songs. You may use it for private study, scholarship, research or language learning purposes only