» » »

Cradle Of Filth, Cemetery And Sundown Tabs (ver.2)

Artists:  A B C D E F G H I J K L M N O P Q R S T U V W X Y Z # 

Cemetery And Sundown Tabs (ver.2)

Cradle Of Filth Tabs
 Rating:
4/5 (4 votes)
Cemetery And Sundown lessons Tabs too difficult? Try these video lessons and learn fast
                Cemetery and Sundown
Alum: Thornography

Drop D tuning


(0:00 - 0:25) Guitar 1
|------------------------------------------------------------------------|
|-555-5/88\5--------8888/77-7-8787--555-5/88\5---------------------------|
|-----------555/666---------------------------555/666-8-8/13131313/9999--|
|------------------------------------------------------------------------|
|------------------------------------------------------------------------|
|------------------------------------------------------------------------|

Guitar 2
|------------------------------------------------------------------------------|
|------------------------------------------------------------------------------|
|------------------------------------------------------------------------------|
|55555555-----------88888888-77777-8787-55555555-------------------------4444--|
|33333333-5555-6666-66666666-55555-6565-33333333-5555-6666-66666666-5555-2222--|
|55555555-5555-6666-88888888-77777-8787-55555555-5555-6666-88888888-7777-4444--|


(0:26 - 0:37)

Bass Solo thing...

(0:38 - 0:40)
|-----------------|
|----8-----8------|
|7-6---7-6---7-6--|
|-----------------|
|-----------------|
|-----------------|


(0:40 -
|----------------------------------------|
|----------------------------------------|
|----------------------------------------|
|1-----------1------------1--------------|   DRUMS
|1---0-------1---0-0-2-5--1---0--0-------|
|1-x-0-0-000-1-x-0-0-2-5--1-x-0--0-000---|

      - 1:05)
|-------------------------------------------------------|
|-------------------------------------------------------|
|-------------------------------------------------------|
|1-----------1------------1-----------------------------|
|1---0-------1---0-0-2-5--1---0--0----------------------|
|1-x-0-0-000-1-x-0-0-2-5--1-x-0--0-000-00-13/1-00-13/1--|


(1:06 - 1:34)
|--------------------------------------------|
|--------------------------------------------|
|--------------------------------------------|
|---------3-5-5------------------------------|
|4~-3~-1~-1-3-5-3-5-2--4~-3~-1~-555---666----|
|--0--0---------3-5-2----0--0---555-0-666-0--|


(1:34 - 2:00)
|------------------------------------------------------------------------|
|-555-5/88\5--------8888/77-7-8787--555-5/88\5---------------------------|
|-----------555/666---------------------------555/666-8-8/13131313/9999--|
|------------------------------------------------------------------------|
|------------------------------------------------------------------------|
|------------------------------------------------------------------------|

Guitar 2
|------------------------------------------------------------------------------|
|------------------------------------------------------------------------------|
|------------------------------------------------------------------------------|
|55555555-----------88888888-77777-8787-55555555-------------------------4444--|
|33333333-5555-6666-66666666-55555-6565-33333333-5555-6666-66666666-5555-2222--|
|55555555-5555-6666-88888888-77777-8787-55555555-5555-6666-88888888-7777-4444--|


(2:00 - 2:12)

Bass solo thing again


(2:13 - 2:16)
|-----------------|
|----8-----8------|
|7-6---7-6---7-6--|
|-----------------|
|-----------------|
|-----------------|


(2:16 -
|----------------------------------------|
|----------------------------------------|
|----------------------------------------|
|1-----------1------------1--------------|   DRUMS
|1---0-------1---0-0-2-5--1---0--0-------|
|1-x-0-0-000-1-x-0-0-2-5--1-x-0--0-000---|

     - 2:40)
|-------------------------------------------------------|
|-------------------------------------------------------|
|-------------------------------------------------------|
|1-----------1------------1-----------------------------|
|1---0-------1---0-0-2-5--1---0--0----------------------|
|1-x-0-0-000-1-x-0-0-2-5--1-x-0--0-000-00-13/1-00-13/1--|


(2:41 - 3:07)
|--------------------------------------------|
|--------------------------------------------|
|--------------------------------------------|
|---------3-5-5------------------------------|
|4~-3~-1~-1-3-5-3-5-2--4~-3~-1~-555---666----|
|--0--0---------3-5-2----0--0---555-0-666-0--|


(3:07 - 3:32)
|--------------------------------------------------------------------------|
|--------------------------------------------------------------------------|
|--------------------------------------------------------------------------|
|7-----7-8-----7-8----7-8-7-5-8-7-----7------7-8------7-8------7-8-7-8-10--|
|5-----5-6-----5-6----5-6-5-3-6-5-----5------5-6------5-6------5-6-5-6--8--|
|--0000---0000----0000------------0000--0000-----0000-----0000-------------|


(3:33 - 3:47)
|------------------------------------------------------------------------------|
|------------------------------------------------------------------------------|
|------------------------------------------------------------------------------|
|7-----6-----3--------------7-----6-----10-------------------------------------|
|7-----6-----3--------------7-----6-----10-------------------------------------|
|77777-66666-333333-3-3333--77777-66666-10-10-10-10-10-10-10-1010-10-10-10-10--|


(3:47 - 3:59)
|--------------------------------------------------------------------------|
|--------------------------------------------------------------------------|
|--------------------------------------------------------------------------|
|7-----7-8-----7-8----7-8-7-5-8-7-----7------7-8------7-8------7-8-7-8-10--|
|5-----5-6-----5-6----5-6-5-3-6-5-----5------5-6------5-6------5-6-5-6--8--|
|--0000---0000----0000------------0000--0000-----0000-----0000-------------|


4:00 - 4:03)
|-----------------|
|----8-----8------|
|7-6---7-6---7-6--|
|-----------------|
|-----------------|
|-----------------|


(4:04 -
|----------------------------------------|
|----------------------------------------|
|----------------------------------------|
|1-----------1------------1--------------|   DRUMS
|1---0-------1---0-0-2-5--1---0--0-------|
|1-x-0-0-000-1-x-0-0-2-5--1-x-0--0-000---|

     - 4:28)
|-------------------------------------------------------|
|-------------------------------------------------------|
|-------------------------------------------------------|
|1-----------1------------1-----------------------------|
|1---0-------1---0-0-2-5--1---0--0----------------------|
|1-x-0-0-000-1-x-0-0-2-5--1-x-0--0-000-00-13/1-00-13/1--|


(4:29 - 5:38) Play until the song ends
|------------------------------------------------------------------------|
|-555-5/88\5--------8888/77-7-8787--555-5/88\5---------------------------|
|-----------555/666---------------------------555/666-8-8/13131313/9999--|
|------------------------------------------------------------------------|
|------------------------------------------------------------------------|
|------------------------------------------------------------------------|

Guitar 2
|------------------------------------------------------------------------------|
|------------------------------------------------------------------------------|
|------------------------------------------------------------------------------|
|55555555-----------88888888-77777-8787-55555555-------------------------4444--|
|33333333-5555-6666-66666666-55555-6565-33333333-5555-6666-66666666-5555-2222--|
|55555555-5555-6666-88888888-77777-8787-55555555-5555-6666-88888888-7777-4444--|

Awesome song


Keep it metal
            
Submit corrections

comments powered by Disqus
↑ Back to top | Cradle Of Filth Tabs for Cemetery And Sundown. Lyrics for acoustic guitar and electric guitar. Tablatures and chords are parodies/interpretations of the original songs. You may use it for private study, scholarship, research or language learning purposes only