>
 >
All Hope In Eclipse 1

All Hope In Eclipse 1 Guitar Tabs

Cradle Of Filth - All Hope In Eclipse 1 chords, tabs, tablatures, lyrics

Guitar lessons | Add/correct | Request | Top 50 tabs Artists:  A B C D E F G H I J K L M N O P Q R S T U V W X Y Z 0-9

All Hope In Eclipse 1 Guitar Tabs – Cradle Of Filth

CD, Sheet music, Poster

Do you like All Hope In Eclipse 1? Share with your friends now
TabsTabs v2Tabs v3
CRADLE OF FILTH
All Hope In Eclipse
2001 Abracadaver Music




Legend:

h        hammer-on             
p        pull-off         
PM |--|  palm mute        
"        tremolo picking
/        slide up            
\        slide down       
4/4      time signature   
( )      tie note
x        muffled note

|----|
|----|
|-*/-| repeat previous bar
|-/*-|
|----|
|----|

|---------|
|---------|
|---*//---| repeat previous 2 bars
|---//*---|
|---------|
|---------|



GTR 1 is the left speaker and GTR 2 the right one


tune down one step (6:D 5:G 4:C 3:F 2:A 1:D)

 Intro 4/4                                            12/8 Gtr 1
|-----------------|------------------|------------------||--------------------------|
|-----------------|------------------|------------------||--------------------------|
|-keyboard-drum-&-|o-----------------|-----------------o||o-------------------------| 
|------bass-------|o-2---------------|-(2)-------------o||o-------------------------|
|-----------------|--2---------------|-(2)--------------||--222222222222222222222222|
|-----------------|--0---------------|-(0)--------------||--000000000000000000000000|
|                                                                                   |
|                                                          Gtr 2                    |
|-----------------|------------------|------------------||--------------------------|
|-----------------|------------------|------------------||--------------------------|
|-keyboard-drum-&-|o-----------------|-----------------o||o-------------------------| 
|------bass-------|o-2---------------|-(2)-------------o||o-2---2-------2---2-------|
|-----------------|--2---------------|-(2)--------------||--------------------------|
|-----------------|--0---------------|-(0)--------------||--------00000-------00000-|
                                                     count: 1 & & 2 & & 3 & & 4 & &

|-------------------------|-------------------------|--------------------------|
|-------------------------|-------------------------|--------------------------|
|-------------------------|-------------------------|-------------------------o|
|-------------------------|-------------------------|-------------------------o|
|-333333333333333333333333|-666666666666666666666666|-555555555555555555555555-|
|-111111111111111111111111|-444444444444444444444444|-333333333333333333333333-|
|                                                                              |
|                                                                              |
|-------------------------|-------------------------|--------------------------|
|-------------------------|-------------------------|--------------------------|
|-------------------------|-------------------------|-------------------------o|
|-3---3-------3---3-------|-6---6-------6---6-------|-5---5-------5---5-------o|
|-------------------------|-------------------------|--------------------------|
|-------11111-------11111-|-------44444-------44444-|-------33333-------33333--|


 Double time feel
|--------------------------|-------------------------|-------------------------|
|--------------------------|-------------------------|-------------------------|
|*-------------------------|-------------------------|-------------------------|
|*-2---2-------2---2-------|-3---3-------3---3-------|-6---6-------6---6-------|
|--------------------------|-------------------------|-------------------------|
|--------00000-------00000-|-------11111-------11111-|-------44444-------44444-|
 A cruel tongue at work in her secret vaults...

                             4/4
|--------------------------||-----------------|-----------------|-----------------|
|--------------------------||-----------------|-----------------|-----------------|
|-------------------------*||-----------------|-----------------|-----------------|
|-5---5-------5---5-------*||-7---------------|-----------------|-----------------|
|--------------------------||-5---------------|-6---------------|-8---------------|
|-------33333-------33333--||-----------------|-4---------------|-6---------------|


|-----------------|-----------------|-----------------|----------------|
|-----------------|-----------------|-----------------|----------------|
|-----------------|-----------------|-----------------|----------------|
|-----------------|-7-77777777777777|-----------------|----------------|
|-2---------------|-5-55555555555555|-6-66666666666666|-8-8888888888888|
|-0---------------|-----------------|-4-44444444444444|-6-6666666666666|

                   Riff A
|-----------------|-----------------|------------------|-----------------|
|-----------------|-----------------|------------------|-----------------|
|-----------------|--7"--7-8-7"-----|-7-8-7-10"--8-7-8-|-------*//-------|
|-----------------|-----------------|------------------|-------//*-------|
|-2-22222222222222|-----------------|------------------|-----------------|
|-0-00000000000000|-----------------|------------------|-----------------|

                                                             (end Riff A)
|-----------------|------------------|-----------------|-----------------|
|-----------------|------------------|-----------------|-----------------|
|-----7-8-7"------|-7-8-7-10"--8-7-8-|-----7-8-7"------|-6--/7--/9--/10--|
|-8"--------------|------------------|-7"--------------|-----------------|
|-----------------|------------------|-----------------|-----------------|
|-----------------|------------------|-----------------|-----------------|


|-----------------|------------------|-----------------|-----------------|
|-----------------|------------------|-----------------|-----------------|
|-7"--7-8-7"------|-7-8-7-10"--8-7-8-|-------*//-------|-----7-8-7"------|
|-----------------|------------------|-------//*-------|-8"--------------|
|-----------------|------------------|-----------------|-----------------|
|-----------------|------------------|-----------------|-----------------|
 Legion I arose, a flood of inhumanity....
                                          
|------------------|-----------------|-----------------|
|------------------|-----------------|-Gtr-2-----------|
|---7-8-10"--8-7-8-|-----7-8-7"------|-6--/7--/9--/10--|
|-8----------------|-7"--------------|-------------7---|
|------------------|-----------------|-4--/5--/7-------|
|------------------|-----------------|-Gtr-1-----------|

 Riff B                                                       (end Riff B)
|------------------|-----------------|-----------------|------------------|
|------------------|-----------------|-----------------|------------------|
|o-----------------|-----------------|-----------------|-----------------o|
|o-----------------|-----------------|-----------------|-----------------o|
|--7-7-----7-7-----|-7-7-----7-7-----|-8-8-----8-8-5---|-3-3-----7/8-7\5--|
|--5-5-55555-5-5555|-5-5-55555-5-5555|-6-6-66666-6-3---|-1-1-11115/6-5\3--|

 play Riff A          

|-----------------|------------------|-----------------|-----------------|
|------h----------|----p----------h--|-----------------|------h----------|
|-7---7-8-7~------|-7-8-7-10---8-7-8-|-------*//-------|-----7-8-7-------|
|-----------------|------------------|-------//*-------|-8---------------|
|-----------------|------------------|-----------------|-----------------|
|-----------------|------------------|-----------------|-----------------|
  Black bibles I inscribed,...

|------------------|-----------------|-----------------|
|----h----------h--|------h----------|-Gtr-2-----------|
|---7-8-10---8-7-8-|-----7-8-7-------|-6--/7--/9--/10--|
|-8----------------|-7---------------|-------------7---|
|------------------|-----------------|-4--/5--/7-------|
|------------------|-----------------|-Gtr-1-----------|

play Riff B 4 times

 Interlude 
|------------------|-----------------------------|-----------------|
|------------------|----------h--p-h--p-h--p-h---|-----------------|
|o---------99999999|---------9-10-9-10-9-10-9-10-|-----------------|
|o-----------------|-----9999--------------------|---------99999999|
|--77777777--------|-7777------------------------|-66666666--------|
|------------------|-----------------------------|-----------------|

|------------------------------||------------------|-----------------|
|------------------------------||------------------|-----------------|
|-----------------------------o||o-----------------|-----------------|
|-----------------------------o||o---------99999999|-----999988888888|
|-----10101010-h-p-h-p-h-p-h---||--77777777--------|-7777------------|
|-8888--------8-9-8-9-8-9-8-9--||------------------|-----------------|
                           Then between the past and the ravening dark...

|---------------------|----------------------||------------------|-----------------|
|---------------------|----------------Gtr-1-||------------------|-----------------|
|---------------------|-----------------8888o||o-----------------|-----------------|
|-9999--------8888----|---------------------o||o-9---------------|-8---------------|
|-----10101010----9999|-10101010777799996666-||--7---------------|-6---------------|
|---------------------|----------------Gtr-2-||------------------|-----------------|

                                      __________________________________
                                     |1.                               
|-----------------|-----------------|-----------------|-----------------|
|-----------------|-----------------|-----------------|-----------------|
|-----------------|-----------------|-----------------|-----------------|
|-5---------------|-4---------------|-9---------------|-11--------------|
|-3---------------|-2---------------|-7---------------|-9---------------|
|-----------------|-----------------|-----------------|-----------------|

 ___________________________________   ____________________________________
  Gtr 1                             | |2.                                  |
|-----------------|------------------|-------------------|------------------|
|-----------------|------------------|-------------------|------------------|
|-----------------|-11--------------o|-------------------|------------------|
|-12--------------|-9---------------o|--------h-------h--|--------h---9~----|
|-10--------------|------------------|-7~----6-7-9~--7-9-|-10~---9-10-------|
|-----------------|------------------|-------------------|------------------|
|                                                                           |                                                        
| Gtr 2                                                                     |
|-----------------|------------------|-------------------|------------------|
|-----------------|------------------|-------------------|--------h---------|
|-----------------|-11--------------o|--------h--8~----8-|-9~----8-9--11~---|
|-12--------------|-9---------------o|-9~----7-9-----9---|------------------|
|-10--------------|------------------|-------------------|------------------|
|-----------------|------------------|-------------------|------------------|

                                 12/8 
  Free time                      Gtr 1
|---------------|---------------|-------------------------|-------------------------|
|---------------|---------------|-------------------------|-------------------------|
|---------------|-Keyboard-and--|--------Drum-fill--------|-------------------------|
|-2-------------|-organ-effects-|-------------------------|-------------------------|
|-2-------------|---------------|-------------------------|-------------0\\\slack\\\|
|-0-------------|---------------|-------------------------|-------------0\\\\bar\\\\|
|                                                                                   |
|                                Gtr 2                                              |
|---------------|---------------|-------------------------|-------------------------|
|---------------|---------------|-------------------------|-------------------------|
|---------------|-Keyboard-and--|--------Drum-fill--------|-------------------------|
|-2-------------|-organ-effects-|-------------------------|-------------------------|
|-2-------------|---------------|-------------------------|-------------x\\\pick\\\\|
|-0-------------|---------------|-------------------------|-------------x\\\slide\\\|


|--------------------------|-------------------------|-------------------------|
|--------------------------|-------------------------|-------------------------|
|o-------------------------|-------------------------|-------------------------|
|o-------------------------|-------------------------|-------------------------|
|--------------------------|-------------------------|-------------------------|
|--000000000000000000000000|-111111111111111111111111|-444444444444444444444444|

                             4/4
|--------------------------||------------------|-----------------|-----------------|
|--------------------------||------------------|-----------------|---------9-------|
|-------------------------o||o-----------------|-----------------|-----9-------9---|
|-------------------------o||o-9-----9-----9---|-9-----9-----9---|-6666------------|
|--------------------------||--7-77777-77777-77|-7-77777-77777-77|-----------------|
|-333333333333333333333333-||------------------|-----------------|-----------------|
                              
                      
|------------------||------------------|-----------------|-----------------|
|-9~------8~-------||------------------|-----------------|-----------------|
|-----------------o||o-----------------|-------*/--------|-----------------|
|-----------------o||o-9-----9---9-----|-------/*--------|-----------------|
|------------------||--7-----7---7-----|-----------------|-6666666666666666|
|------------------||----000---0---0000|-----------------|-4444444444444444|


|------------------|-------------------|
|------------------|-------------------|
|-----------------o|o-----------------o|
|-----------------o|o-9-----9---------o|
|-5555555555555555-|--7-77777-77777777-|
|-3333333333333333-|-------------------|

play Riff A

|-----------------|------------------|-----------------|-----------------|
|------h----------|----p----------h--|-----------------|------h----------|
|-7---7-8-7~------|-7-8-7-10---8-7-8-|-------*//-------|-----7-8-7-------|
|-----------------|------------------|-------//*-------|-8---------------|
|-----------------|------------------|-----------------|-----------------|
|-----------------|------------------|-----------------|-----------------|


|------------------|-----------------|-----------------|
|----h----------h--|------h----------|-----------------|
|---7-8-10---8-7-8-|-----7-8-7-------|-6--/7--/9--/10--|
|-8----------------|-7---------------|-----------------|
|------------------|-----------------|-----------------|
|------------------|-----------------|-----------------|

play Riff B 4 times

|-------------------|-----------------|----------------|-----------------|
|-------------------|-----------------|----------------|-----------------|
|o-----------------o|-----------------|----------------|-----------------|
|o-----------------o|-----------------|----------------|-----------------|
|--7-------7--------|-8-------8---5---|-3-3-----7-8-7-5|-7---------------|
|--5-------5--------|-6-6666666---3---|-1-1-11115-6-5-3|-5---------------|





Comments


Popular Cradle Of Filth tabs & chords
Beauty Slept In Sodom Bass Tabs
Nocturnal Supremacy Bass Tabs
Nymphetamine 3 Bass Tabs
A Thousand Hands On The Maid Of Ruin Tabs
Death Magic For Adepts Tabs
Gilded Cunt Tabs
The Promise Of Fever 1 Tabs
Tonight In Flames 2 Tabs
Tragic Kingdom Tabs
Under Huntress Moon 1 Tabs


Song lyrics



↑ Back to top | Tablatures and chords are parodies/interpretations of the original songs. You may use it for private study, scholarship, research or language learning purposes only
© 2014 AZChords.com Contact us | Privacy policy | DMCA | Add/correct tabs | Request tabs | Top 50 tabs