» » »

All Hope In Eclipse Tabs (ver.1)

Artists:  A B C D E F G H I J K L M N O P Q R S T U V W X Y Z # 

All Hope In Eclipse Tabs (ver.1)

Cradle Of Filth
Rating:
0/5 (0 votes)

Hard to play? Try these video lessons and learn fast.
                ALBUM - BITTER SUITES TO SUCCUBI
TRACK - 2 (ALL HOPE IN ECLIPSE)
TUNING - D,G,C,F,A,D,

* - PALM MUTE
s - SLIDE
" - TREM PICK
~ - LET NOTE RING
h - HAMMER ON
p - PULL OFF
tr - TRILL NOTE


INTRO                 
                                RIFF 1
D--------------------------X2]-------------X2]
A----------------------------]---------------]
F----------------------------]---------------]
C--2~--HEY!..HEY!..HEY!..----]---------------]
G--2~------------------------]---------------]
D--0~------------------------]--0"-1"-4"-3"--]

 
  RIFF 2
D--------------X2]--------------X2]--------------X2]--------------X2]
A----------------]----------------]----------------]----------------]
F----------------]----------------]----------------]----------------]
C----------------]----------------]----------------]----------------]
G----------------]----------------]----------------]----------------]
D--12-0-12-0000--]--13-0-13-0000--]--16-0-16-0000--]--15-0-15-0000--]

  RIFF 3
D------------------]---------------------------------------]
A------------------]---------------------------------------]
F------------------]---------------------------------------]
C--7~--6~--8~--2~--]--77777777-66666666-88888888-22222222--]
G--5~--6~--8~--2~--]--55555555-66666666-88888888-22222222--]
D--5~--4~--6~--0~--]--55555555-44444444-66666666-00000000--]


  RIFF 4
D---------------------------X2]----------------------------]
A-----------------------------]----------------------------]
F--7"-7"8"7"-7"8"7"10"8"7"8"--]----7"8"7"---7"8"10"8"7"8"--]
C-----------------------------]--8"-------8"---------------]
G-----------------------------]----------------------------]
D-----------------------------]----------------------------]
              1st end       2nd end
D-----------]------------]---------------]
A-----------]------------]---------------]
F----7"8"7"-]-6"7"9"10"--]--6"7"9"10"7"--]
C--7"-------]------------]---------------]
G-----------]------------]---------------]
D-----------]------------]---------------]

 riff 5
D------------------------------------------------------------]
A------------------------------------------------------------]
F------------------------------------------------------------]
C------------------------------------------------------------]
G--77------77------77------77------88------88--5-33-7-8-7-5--]
D--55-5555-55-5555-55-5555-55-5555-66-6666-66--3-11-5s6s5s3--]
      ****    ****    ****    ****    ****





  RIFF 6
D---------------------------------------x2]
A-----------------------------------------]
F----9"-----8tr10-------------------------]
C--------9"---------9"---4"---------------]
G--7"---7"--------6"---3"----3h5p3/2-2~---]
D-----------------------------------------]

       
D------------------------------------------]
A------------------------------------------]
F------------------------------------------]
C----9"----9"-8"----9"---8"---5"---4"------]
G--7"----7"----------10"---9"---7"---6"----]
D------------------------------------------]


   RIFF 7                                 1ST END
D--------------]-----------------]------------------------]
A--------------]-----------------]------------------------]
F--------------]-----------------]------------------------]
C--9"--89--8"--]-----------------]--9"--89--11"--12"-16"--]
G--7"--67--6"--]--10"--9-10--9"--]--7"--67---9"--10"-14"--]
D--------------]---8"--7-8---7"--]------------------------]

 2ND END

D-----------------------------------]
A-----------------------------------]
F---------8~---8-9~--8-9-11~--------]
C--9~-7-9----9------------------2~--] GUITARS OUT.
G-------------------------------2~--]
D-------------------------------0~--] 


 KEYBOARDS


  RIFF 8 X2                 RIFF 9 X2
D-----------------------]--------------------------------]
A------------9"--8"-8^--]--------------------------------]
F----------8"--8"-------]--------------------------------]
C--9"----6"-------------]--------------------------------]
G--7"-------------------]--2---2---2---2---2---2--6"-5"--]
D-----------------------]--0-0-0-0-0-0-0-0-0-0-0--4"-3"--]

  FILL

D-----------------X2]
A-------------------]
F--9------9---------]
C--8------8---------]
G--7------7---------] 
D--0-0000-0-000000--]
     ****   ******


RIFF 4 X2


  OUTRO
D------------------------------------------------------------]
A------------------------------------------------------------]
F------------------------------------------------------------]
C------------------------------------------------------------]
G--77------77------77------77------88------88--5-33-7-8-7-5--] X3
D--55-5555-55-5555-55-5555-55-5555-66-6666-66--3-11-5s6s5s3--]
      ****    ****    ****    ****    ****


D-------------------------------------]
A-------------------------------------]
F-------------------------------------]
C-------------------------------------]
G--7-7-7-7--8------8-5-33--7-8-7-5-7--]
D--5-5-5-5--6-6666-6-3-11--5-6-5-3-5--]
              ****         * * * * *


ENJOY PLZ RATE,THE RIFFS ARE PRETTY MUCH IN ORDER BUT THERE ARE SOME RIFFS
THAT ARE REPEATED BETWEEN RIFFS.I DIDNT REPEAT THEM ON HERE TO SAVE ROOM.
            
Hard to play? Try these video lessons and learn fast. | Correct




comments powered by Disqus
↑ Back to top | Tablatures and chords are parodies/interpretations of the original songs. You may use it for private study, scholarship, research or language learning purposes only