» » »

Absinthe With Faust Tabs (ver.4)

Artists:  A B C D E F G H I J K L M N O P Q R S T U V W X Y Z # 

Absinthe With Faust Tabs (ver.4)

Cradle Of Filth
Rating:
0/5 (0 votes)

Hard to play? Try these video lessons and learn fast.
                Absinthe with Faust
Drop D Tuning

B=bend		r=release	.=palm mute	\or/=slide
~=vibrato	“=tremolo pick	h=hammer on	p=pull off
Riff 1		2x
E|------------------------------------------------|
B|------------------------------------------------|
G|------------------------------------------------|
D|-3~-5-6~-8-8br-8~-8p6-3~~~-5p3~-5-6~-8-br-8~\3~-|
A|------------------------------------------------|
D|------------------------------------------------|
||
E|------------------------------------------------|
B|------------------------------------------------|
G|------------------------------------------------|
D|-3~-5-6~--\1~----------8~~-3~---5-6~--\1~----8~-|
A|-3~-5-6~--\1~----------8~~-3~---5-6~--\1~----8~-|
D|-3~-5-6~--\1~----------8~~-3~---5-6~--\1~----8~-|

Riff 2
Guitar 1
E|-----------------------------|
B|-----------------------------|
G|-----------------------------|
D|-5~--5-5-5~-5-5-5~-5-5-5~-5~-|
A|-----.-.----.-.----.-.-------|
D|-----------------------------|

Guitar 2
E|-----------------------------|
B|-----------------------------|
G|-----------------------------|
D|-10~-8-7-6~-5-4-3~-3-2-1~-5~-|
A|-10~-8-7-6~-5-4-3~-3-2-1~-5~-|
D|-10~-8-7-6~-5-4-3~-3-2-1~-5~-|
       . .    . .    . .
Riff 3
E|----------------------------------------|
B|----------------------------------------|
G|----------------------------------------|
D|-5-55-5544-44-44-5-55-55-5--------------|
A|-5-55-5544-44-44-5-55-55-5--------------|
D|-5-55-5544-44-44-5-55-55-5-5-7-10-8-7-8-|
     .  .    .  .    .  .
E|---------------------------------------|
B|---------------------------------------|
G|---------------------------------------|
D|-5-55-5544-44-44-5-55-55-5-------------|
A|-5-55-5544-44-44-5-55-55-5-------------|
D|-5-55-5544-44-44-5-55-55-5-5-7-10-8-7~-|
     .  .    .  .    .  .
Riff 4		2x
E|----------------------------------------|
B|----------------------------------------|
G|----------------------------------------|
D|-2-222-2-2-222-2-2-222-2----------------|
A|-2-222-2-2-222-2-2-222-2-1-----1--------|
D|-2-222-2-2-222-2-2-222-2---2-2---2-2-0~-|
   . ... . . ... . . ... .
Riff 5
E|---------------------------------------------------------------------------------|
B|---------------------------------------------------------------------------------|
G|----------11------------------11------------------11-----------------------------|
D|-7-10-9-7-11-7-9-10---6-8-7-6-11-6-7-9---7-10-9-7-11-7-9-10---10-12-10-9-7-6-3-1-|
A|-7-10-9-7-9--7-9-10---6-8-7-6-9--6-7-9---7-10-9-7-9--7-9-10---10-12-10-9-7-6-3-1-|
D|-7-10-9-7----7-9-10---6-8-7-6----6-7-9---7-10-9-7----7-9-10---10-12-10-9-7-6-3-1-|
        . .    . . .        . .    . . .        . .    . . .
E|--------------------------------------------------------------------------------|
B|--------------------------------------------------------------------------------|
G|----------11------------------11------------------------------------------------|
D|-7-10-9-7-11-7-9-10---6-8-7-6-11-6-7-9---7-10-9-7-11-7-9-10---10-7-7-10-9-------|
A|-7-10-9-7-9--7-9-10---6-8-7-6-9--6-7-9---7-10-9-7-9--7-9-10---10-7-7-10-9-7-9---|
D|-7-10-9-7----7-9-10---6-8-7-6----6-7-9---7-10-9-7----7-9-10---10-7-7-10-9-------|
        . .    . . .        . .    . . .        . .    . . .
REPEAT EVERYTHING

Riff 6		4x
E|--------------------------------------------------------|
B|--------------------------------------------------------|
G|-5~-0~-7h8~-7~-5~-0~-7h8~-7~-5~-0~-7h8~-7~-8~-10~-7~-8~-|
D|--------------------------------------------------------|
A|--------------------------------------------------------|
D|--------------------------------------------------------|
||
E|-------------------------------------------------------|
B|-------------------------------------------------------|
G|-------1h5~-1~-----------------------------------------|
D|---------------------3h5~-3~-------6p5~-6~-------------|
A|-3~-0~--------------------------3~------------------1~-|
D|---------------1~-5~---------6~------------1~-1~-3~----|

Riff 7a	3x
E|-6~-5~-3~-5~-6~-5~-3~----6~-5~-3~-5~-6~-8~-5~-6~-|
B|----------------------6~-------------------------|
G|-------------------------------------------------|
D|-------------------------------------------------|
A|-------------------------------------------------|
D|-------------------------------------------------|
||
E|-------------------------------------------------|
B|-------------------------------------------------|
G|-------------------------------------------------|
D|-5~----------1~----------8~----------3~----------|
A|-5~----------1~----------8~----------3~----------|
D|-5~----------1~----------8~----------3~----------|

Riff 7b
E|-6~-5~-3~-5~-6~-5~-3~----10~-8~-6~-8~-13~-11~-10~-8~-|
B|----------------------6~-----------------------------|
G|-----------------------------------------------------|
D|-----------------------------------------------------|
A|-----------------------------------------------------|
D|-----------------------------------------------------|
||
E|-----------------------------------------------------|
B|-----------------------------------------------------|
G|-----------------------------------------------------|
D|-5~----------1~----------8~-----------3~-------------|
A|-5~----------1~----------8~-----------3~-------------|
D|-5~----------1~----------8~-----------3~-------------|

Play Riff 1
Play Riff 2
Riff 8		2x
E|-------------------------‘---------------------------|
B|-------------------------‘---------------------------|
G|-------------------------‘---------------------------|
D|-------------------------‘--------------5”---3”------|
A|-6”-5”-3”-5”-6”-3”-6”-5”-‘-6”-5”-3”-5”6”-------6”-5”-|
D|-------------------------‘---------------------------|

Play Riff 5
Play Riff 6
Riff 9		4x
E|---------------------------------------------------------------|
B|---------------------------------------------------------------|
G|---------------------------------------------------------------|
D|-3~3-5-6-5-3-6-2~2-3-5-3-2-5-3~3-5-6-5-3-6-10h11p10-8-10-8-2---|
A|-3~3-5-6-5-3-6-2~2-3-5-3-2-5-3~3-5-6-5-3-6-10h11p10-8-10-8-2---|
D|-3~3-5-6-5-3-6-2~2-3-5-3-2-5-3~3-5-6-5-3-6-10h11p10-8-10-8-2---|
     . . . . . .   . . . . . .   . . . . . .          . .  .
Ending
E|-------||
B|-------||
G|-------||
D|-3~-\--||
A|-3~-\--||
D|-3~-\--||
            
Hard to play? Try these video lessons and learn fast. | Correct




comments powered by Disqus
↑ Back to top | Tablatures and chords are parodies/interpretations of the original songs. You may use it for private study, scholarship, research or language learning purposes only