>
 >
Absinthe With Faust 1

Absinthe With Faust 1 Guitar Tabs

Cradle Of Filth - Absinthe With Faust 1 chords, tabs, tablatures, lyrics

Guitar lessons | Add/correct | Request | Top 50 tabs Artists:  A B C D E F G H I J K L M N O P Q R S T U V W X Y Z 0-9

Absinthe With Faust 1 Guitar Tabs – Cradle Of Filth

CD, Sheet music, Poster

Do you like Absinthe With Faust 1? Share with your friends now
Bass TabsTabsTabs v2Tabs v3Tabs v4
Cradle of Filth Absinthe With Faust
pretty good song and good to play

the tuning is Drop C {CGCFAD}
Enjoy



Intro arranged for guitar:
|---------------------|---------------------|---------------------|---------------------|
|--8------------------|--11-----------------|--6------------------|--13-----------------|
|--x------------------|---------------------|---------------------|---------------------|
|--x------------------|---------------------|---------------------|---------------------|
|--5------------------|---8-----------------|--3------------------|--10-----------------|
|--5------------------|---8-----------------|--3------------------|--10-----------------|
|                     |                     |                     |                     |
|--10----10-12----12--|--14----14-16-14-12--|--10----10-12----12--|--14----14-16-14-12--|
|-----10-------10-----|-----10--------------|-----10-------10-----|-----16--------------|
|---------------------|---------------------|---------------------|---------------------|
|---------------------|---------------------|---------------------|---------------------|
|--12-----------------|--12-----------------|---8-----------------|---8-----------------|
|--12-----------------|--12-----------------|---8-----------------|---8-----------------|
|                     |                     |                     |                     |
|--10----10-12----12--|--16-16----16-14-12--|--10----10-12----12--|--14-12----------12--|
|-----10-------10-----|--------14-----------|-----10-------10-----|--------14-12-14-----|
|---------------------|---------------------|---------------------|---------------------|
|---------------------|---------------------|---------------------|---------------------|
|---5-----------------|---5-----------------|---5-----------------|---7-----------------|
|---5-----------------|---5-----------------|---5-----------------|---7-----------------|

Intro{After Piano}:
   Paul
|---------------------|---------------------|---------------------|---------------------|
|---------------------|----------------5----|--5---5^--5-5-3------|---0-----------------|
|-5---------------7---|---8-----------------|---------------------|---------------------|
|---------------------|---------------------|---------------------|---------------------|
|---------------------|---------------------|---------------------|---------------------|
|---------------------|---------------------|---------------------|---------------------|
|  Charles                                                                              |
|---------------------|---------------------|---------------------|---------------------|
|---8-----------------|---11----------------|---6-----------------|---13----------------|
|---------------------|---------------------|---------------------|---------------------|
|---------------------|---------------------|---------------------|---------------------|
|---5-----------------|----8----------------|---3-----------------|---10----------------|
|---5-----------------|----8----------------|---3-----------------|---10----------------|


Both Guitars
|---------------------|---------------------|---------------------|---------------------|
|---------------------|---------------------|---------------------|---------------------|
|---------------------|---------------------|---------------------|---------------------|
|---------------------|---------------------|---------------------|---------------------|
|--12-----------------|--(12)---(12)-10--9--|--8------------------|--(8)-----(8)--7--6--|
|--12-----------------|--(12)---(12)-10--9--|--8------------------|--(8)-----(8)--7--6--|
|                                                                                       |
|---------------------|---------------------|---------------------|---------------------|
|---------------------|---------------------|---------------------|---------------------|
|---------------------|---------------------|---------------------|---------------------|
|---------------------|---------------------|---------------------|---------------------|
|--5------------------|--(5)-----(5)--5--4--|--3------------------|---7-----------------|
|--5------------------|--(5)-----(5)--5--4--|--3------------------|---7-----------------|


Paul
|---------------------|---------------------|---------------------|---------------------|
|---------------------|---------------------|---------------------|---------------------|
|---------------------|---------------------|---------------------|---------------------|
|---------------------|---------------------|---------------------|----------0----------|
|--7---7-7---7-7-7----|--7---7-7---7-7-7----|--7---7-7---7-7-7----|--7---0-2---3-2------|
|---------------------|---------------------|---------------------|---------------------|
|                                                                                       |
|  Charles                                                                              |
|---------------------|---------------------|---------------------|---------------------|
|---------------------|---------------------|---------------------|---------------------|
|---------------------|---------------------|---------------------|-----------7-5-4-----|
|---------------------|---------------------|---------------------|------7-9------------|
|--8-----8-----8-7----|--7---7-7---7-7-7----|--8-----8-----8-7----|--7------------------|
|------7-----7--------|---------------------|------7-----7--------|---------------------|


Paul
|---------------------|---------------------|---------------------|---------------------|
|---------------------|---------------------|---------------------|---------------------|
|---------------------|---------------------|---------------------|---------------------|
|---------------------|---------------------|---------------------|---------------------|
|--4------4-4------4--|--4------4-4------4--|--4------4-4------4--|--3------3------2----|
|--4------4-4------4--|--4------4-4------4--|--4------4-4------4--|----4------4----2----|
|                                                                                       |
| Charles                                                                               |
|---------------------|---------------------|---------------------|---------------------|
|---------------------|---------------------|---------------------|---------------------|
|---------------------|---------------------|---------------------|---------------------|
|---------------------|---------------------|---------------------|---------------------|
|--4--------4------4--|--5--------2------5--|--4--------4------4--|--3------3------2----|
|---------------------|---------------------|---------------------|----4------4----2----|


Paul
|---------------------|---------------------|---------------------|---------------------|
|---------------------|---------------------|---------------------|---------------------|
|---------------------|---------------------|---------------------|---------------------|
|-----0-----6-----0---|----------6----------|-----0-----6---------|---------------------|
|---2---4-2---2-4-----|--1-4-2-1---1-2-4----|---2---4-2---2-4-5---|--5-7-5-4-2-1--------|
|---------------------|---------------------|---------------------|---------------5-3---|
|                                                                                       |
|  Charles                                                                              |
|---------------------|---------------------|---------------------|---------------------|
|---------------------|---------------------|---------------------|---------------------|
|-----2-----8-----2---|----------8----------|-----2-----8-----2---|--2-4-2--------------|
|---4---6-4---4-6-----|--3-6-4-3---3-4-6----|---4---6-4---4-6-----|--------6-4-3--------|
|---------------------|---------------------|---------------------|---------------5-3---|
|---------------------|---------------------|---------------------|---------------------|


Paul
|---------------------|---------------------|---------------------|---------------------|
|---------------------|---------------------|---------------------|---------------------|
|---------------------|---------------------|---------------------|------------4-6------|
|-----0-----6-----0---|----------6----------|-----0-----6-----0---|--0-----0------------|
|---2---4-2---2-4-----|--1-4-2-1---1-2-4----|---2---4-2---2-4-----|----2-2---4----------|
|---------------------|---------------------|---------------------|---------------------|
|                                                                                       |
|  Charles                                                                              |
|---------------------|---------------------|---------------------|---------------------|
|---------------------|---------------------|---------------------|------------6-8------|
|-----2-----8-----2---|----------8----------|-----2-----8-----2---|--2-----2------------|
|---4---6-4---4-6-----|--3-6-4-3---3-4-6----|---4---6-4---4-6-----|----4-4---6----------|
|---------------------|---------------------|---------------------|---------------------|
|---------------------|---------------------|---------------------|---------------------|


Paul
|---------------1-1---|---------------1-1---|---------------1-1---|---1---1-3-0--1------|
|---3-----------------|---3-----------------|---3-----------------|---------------------|
|----------2----------|----------2----------|----------2----------|---------------------|
|---------------------|---------------------|---------------------|---------------------|
|---------------------|---------------------|---------------------|---------------------|
|---------------------|---------------------|---------------------|---------------------|
|                                                                                       |
|  Charles                                                                              |
|---------------------|---------------------|---------------------|---------------------|
|---------------3-----|---------------------|---------------------|---------------------|
|-----------------3---|---------------2-0---|---------------2-3---|---------------------|
|---0-----------------|---------------------|---------0-----------|---------------------|
|----------0----------|----------0----------|---1-----------------|--------------3------|
|---------------------|---1-----------------|---------------------|---3---3---5---------|


Paul
|--8---7---5---3------|--8---7---5---3------|--8---7---5---3------|--8--(8)^--7---8-----|
|---------------------|---------------------|---------------------|---------------------|
|---------------------|---------------------|---------------------|---------------------|
|---------------------|---------------------|---------------------|---------------------|
|---------------------|---------------------|---------------------|---------------------|
|---------------------|---------------------|---------------------|---------------------|
|                                                                                       |
| Charles                                                                               |
|---------------------|---------------------|---------------------|---------------------|
|---------------------|---------------------|---------------------|---------------------|
|---------------------|---------------------|---------------------|---------------------|
|--2------------------|---------------------|--5------------------|---------------------|
|--0------------------|--3------------------|--3------------------|--5------------------|
|---------------------|--3------------------|---------------------|--5------------------|


Then the Piano and Orchestra


Paul
|-/8---7---5---3\-----|-/8---7---5---3\-----|-/8---7---5---3\-----|-/8--(8)^--7---8-----|
|---------------------|---------------------|---------------------|---------------------|
|---------------------|---------------------|---------------------|---------------------|
|---------------------|---------------------|---------------------|---------------------|
|---------------------|---------------------|---------------------|---------------------|
|---------------------|---------------------|---------------------|---------------------|
|                                                                                       |
| Charles                                                                               |
|---------------------|---------------------|---------------------|---------------------|
|---------------------|---------------------|---------------------|---------------------|
|---------------------|---------------------|---------------------|---------------------|
|--2------------------|---------------------|--5------------------|---------------------|
|--0------------------|--3------------------|--3------------------|--5------------------|
|---------------------|--3------------------|---------------------|--5------------------|

Paul
|-------------------------------------------|-------------------------------------------|
|-------------------------------------------|-------------------------------------------|
|-------------------------------------------|-------------------------------------------|
|------3-3-3-3-2-2-2-2-0-0-0-0-2-2-3-3------|-------0-0-0-0-0-0-0-0-3-3-3-3-2-2-2-2-----|
|-------------------------------------------|-------------------------------------------|
|-------------------------------------------|-------------------------------------------|
|      . . . . . . . . . . . . . . . .              . . . . . . . . . . . . . . . .     |
|  Charles                                                                              |
|-------------------------------------------|-------------------------------------------|
|-------------------------------------------|-------------------------------------------|
|-------------------------------------------|-------------------------------------------|
|-------------------------------------------|-------------------------------------------|
|------1-1-1-1-0-0-0-0---------0-0-1-1------|-----------------------1-1-1-1-0-0-0-0-----|
|----------------------5-5-5-5--------------|-------5-5-5-5-5-5-5-5---------------------|
       . . . . . . . . . . . . . . . .              . . . . . . . . . . . . . . . . 


Paul
|-------------------------------------------|-------------------------------------------|
|-------------------------------------------|-------------------------------------------|
|-------------------------------------------|-------2-2-2-2-2-2-0-0---------------------|
|------3-3-3-3-2-2-2-2-0-0-0-0-2-2-3-3------|-----------------------3-3-3-3-2-2-2-2-----|
|-------------------------------------------|-------------------------------------------|
|-------------------------------------------|-------------------------------------------|
|      . . . . . . . . . . . . . . . .              . . . . . . . . . . . . . . . .     |
|  Charles                                                                              |
|-------------------------------------------|-------------------------------------------|
|-------------------------------------------|-------------------------------------------|
|-------------------------------------------|-------------------------------------------|
|-------------------------------------------|-------0-0-0-0-0-0-0-0---------------------|
|------1-1-1-1-0-0-0-0---------0-0-1-1------|-----------------------3-3-3-3-2-2-2-2-----|
|----------------------5-5-5-5--------------|-------------------------------------------|
|      . . . . . . . . . . . . . . . .              . . . . . . . . . . . . . . . . 


Paul
|---------------------|---------------------|---------------------|---------------------|
|---------------------|---------------------|---------------------|---------------------|
|---------------------|---------------------|---------------------|---------------------|
|-----0-----6-----0---|----------6----------|-----0-----6---------|---------------------|
|---2---4-2---2-4-----|--1-4-2-1---1-2-4----|---2---4-2---2-4-5---|--5-7-5-4-2-1--------|
|---------------------|---------------------|---------------------|---------------5-3---|
|                                                                                       |
|  Charles                                                                              |
|---------------------|---------------------|---------------------|---------------------|
|---------------------|---------------------|---------------------|---------------------|
|-----2-----8-----2---|----------8----------|-----2-----8-----2---|--2-4-2--------------|
|---4---6-4---4-6-----|--3-6-4-3---3-4-6----|---4---6-4---4-6-----|--------6-4-3--------|
|---------------------|---------------------|---------------------|---------------5-3---|
|---------------------|---------------------|---------------------|---------------------|


Paul
|---------------------|---------------------|---------------------|---------------------|
|---------------------|---------------------|---------------------|---------------------|
|---------------------|---------------------|---------------------|------------4-6------|
|-----0-----6-----0---|----------6----------|-----0-----6-----0---|--0-----0------------|
|---2---4-2---2-4-----|--1-4-2-1---1-2-4----|---2---4-2---2-4-----|----2-2---4----------|
|---------------------|---------------------|---------------------|---------------------|
|                                                                                       |
|  Charles                                                                              |
|---------------------|---------------------|---------------------|---------------------|
|---------------------|---------------------|---------------------|------------6-8------|
|-----2-----8-----2---|----------8----------|-----2-----8-----2---|--2-----2------------|
|---4---6-4---4-6-----|--3-6-4-3---3-4-6----|---4---6-4---4-6-----|----4-4---6----------|
|---------------------|---------------------|---------------------|---------------------|
|---------------------|---------------------|---------------------|---------------------|


Paul
|---------------1-1---|---------------1-1---|---------------1-1---|---1---1-3-0--1------|
|---3-----------------|---3-----------------|---3-----------------|---------------------|
|----------2----------|----------2----------|----------2----------|---------------------|
|---------------------|---------------------|---------------------|---------------------|
|---------------------|---------------------|---------------------|---------------------|
|---------------------|---------------------|---------------------|---------------------|
|                                                                                       |
|  Charles                                                                              |
|---------------------|---------------------|---------------------|---------------------|
|---------------3-----|---------------------|---------------------|---------------------|
|-----------------3---|---------------2-0---|---------------2-3---|---------------------|
|---0-----------------|---------------------|---------0-----------|---------------------|
|----------0----------|----------0----------|---1-----------------|--------------3------|
|---------------------|---1-----------------|---------------------|---3---3---5---------|


Both Guitars     X2
|---------------------|---------------------|---------------------|---------------------|
|---------------------|---------------------|---------------------|---------------------|
|---------------------|---------------------|---------------------|---------------------|
|---------------------|---------------------|---7-8-7-5-7-5-2-----|---------------------|
|---5-----5-7-8-7-5-8-|---4-----4-5-7-5-4-7-|---5-6-5-3-5-3-0-----|---7\----------------|
|---5-----5-7-8-7-5-8-|---4-----4-5-7-5-4-7-|---------------------|---7\----------------|





Comments


Popular Cradle Of Filth tabs & chords
Beneath The Howling Stars Bass Tabs
Black Metal Bass Tabs
Carrion Bass Tabs
From The Cradle To Enslave 2 Bass Tabs
Tortured Soul Asylum Bass Tabs
Forgive Me Father I Have Sinned 2 Tabs
Harlot On A Pedestal Tabs
Manticore Tabs
Nymphetamine 11 Tabs
The Forest Whispers My Name 1 Tabs


Song lyrics



↑ Back to top | Tablatures and chords are parodies/interpretations of the original songs. You may use it for private study, scholarship, research or language learning purposes only
© 2014 AZChords.com Contact us | Privacy policy | DMCA | Add/correct tabs | Request tabs | Top 50 tabs