» » »

Absinthe With Faust Tabs (ver.1)

Artists:  A B C D E F G H I J K L M N O P Q R S T U V W X Y Z # 

Absinthe With Faust Tabs (ver.1)

Cradle Of Filth
Rating:
4/5 (4 votes)

Tabs too difficult? Try these video lessons and learn fast.
                Band: Cradle of Filth

.  - palm mute           /  - slide up to
\  - slide down to       ~  - vibrato
h  - hammer on           b  - Bend
p  - pull off            Suffixes for bend
t  - tap                 f  - full bend    h - half bend
ph - pinched harmonic    q  - quarter bend t - tap bend
*  - see comment         ^  - Hold bend    r release bend
x  - Stuccatto           ~  - vibrato bend
,  - slight palm mute    () - ghost note, sustained note
"  - tremolo note        <> - Trill

Riff#1

Guitar 1
D|-------------------------------------------------------------------|
A|-------------------------------------------------------------------|
F|-------------------------------------------------------------------|
C|5~--7-8~--10-10b-r-10--10p8-5--5~-7-8~--10-10b-r-10--5-------------|
G|-------------------------------------------------------------------|
D|-------------------------------------------------------------------|

Guitar 2
|-------------------------------------------------------------------|
|-------------------------------------------------------------------|
|-------------------------------------------------------------------|
|-------------------5----------------------------5------------------|
|5--7-8-----3-------3----------5--7-8------3-----3------------------|
|3--5-6-----1------------------3--5-6------1------------------------|


Riff#2

Both Guitars
|-------------------------------------------------------------------|
|-------------------------------------------------------------------|
|-------------------------------------------------------------------|
|7---5-4--3---------------------------------------------------------|
|5---3-2--1---7-6--5---5-4--3---7-----------------------------------|
|-------------5-4--3---3-2--1---5-----------------------------------|
     . .      . .      . .

Riff#3

Both Guitars                                                   2x
|-------------------------------------------------------------------|
|-------------------------------------------------------------------|
|-------------------------------------------------------------------|
|-------------------------------------------------------------------|
|7---7--7--7-7-6--6--6-6--6-6--7---7--7--7--7--6--6------5----------|
|5---5--5--5-5-4--4--4-4--4-4--5---5--5--5--5--4--4--5-7---8--7-----|
     .     .         .    .        .     .

Riff#4(Goes with keyboard)

Guitar 1                                                      2x
|-------------------------------------------------------------------|
|-------------------------------------------------------------------|
|-------------------------------------------------------------------|
|-------------------------------------------------------------------|
|4--4-4--4--4--4-4--4--4--4-4--4--3----3----------------------------|
|2--2-2--2--2--2-2--2--2--2-2--2-----2~---2~-0----------------------|


Guitar 2(I'm not sure, but I can hear something like this)    2x
|-------------------------------------------------------------------|
|-------------------------------------------------------------------|
|5----5---5----5----5------5------5----5----------------------------|
|---4---4---4----4----4--2---4-2-----3~---3~-2----------------------|
|-------------------------------------------------------------------|
|-------------------------------------------------------------------|

Riff#5

Both Guitars
|-------------------------------------------------------------------|
|-------------------------------------------------------------------|
|--------8----------------8----------------8------------------------|
|4-7-6-4-6-4-6-7--3-6-4-3-6-3-4-6--4-7-6-4-6-4-6-7--7-9-7-6-4-3-----|
|2-5-4-2---2-4-5--1-4-2-1---1-2-4--2-5-4-2---2-4-5--5-7-5-4-2-1-5-3-|
|---------------------------------------------------------------3-1-|
     . .   . . .      . .   . . .      . .   . . .

|-------------------------------------------------------------------|
|-------------------------------------------------------------------|
|--------8----------------8----------------8------------------------|
|4-7-6-4-6-4-6-7--3-6-4-3-6-3-4-6--4-7-6-4-6-4-6-7--7-4-4-7-6-4-6---|
|2-5-4-2---2-4-5--1-4-2-1---1-2-4--2-5-4-2---2-4-5--5-2-2-5-4-------|
|-------------------------------------------------------------------|
     . .   . . .      . .   . . .      . .   . . .

Play Riff#1
Play Riff#2
Play Riff#3(2x)
Play Riff#4(2x)
Play Riff#5


Riff#6

Guitar 1                                                       4x
|-------------------------------------------------------------------|
|-------------------------------------------------------------------|
|7~--10~-9--7~--10~-9--7~---10~-9--10~-12~-9~-10~-------------------|
|--7----------7-----------7-----------------------------------------|
|-------------------------------------------------------------------|
|-------------------------------------------------------------------|

Guitar 2                                                       4x
|-------------------------------------------------------------------|
|-------------------------------------------------------------------|
|-----7~---------2~-0-----------------------------------------------|
|-------8~-------------------7~-8~----------------------------------|
|5~-----------0------------5~----------------3~---------------------|
|---5~-----1~-----------6~---------1~--1~-3~------------------------|


Riff#7a

Guitar 1                                                        2x
|8~-7~-5~-3~-8~-7~-5~-3~-8~-7~-5~-3~-8~-8b~-7~-8~-------------------|
|-------------------------------------------------------------------|
|-------------------------------------------------------------------|
|-------------------------------------------------------------------|
|-------------------------------------------------------------------|
|-------------------------------------------------------------------|


Guitar 2                                                         2x
|-------------------------------------------------------------------|
|-------------------------------------------------------------------|
|-------------------------------------------------------------------|
|2------------------------5-----------------------------------------|
|0-----------3------------3----------5------------------------------|
|------------1-----------------------3------------------------------|

Fill#
|---|
|---|
|---|
|2/-|
|0/-|
|---|


Riff#7b

Guitar 1
|8~-7~-5~-3~-8~-7~-5~-3~-8~-7~-5~-3~-8~-8b~-7~-8~-------------------|
|-------------------------------------------------------------------|
|-------------------------------------------------------------------|
|-------------------------------------------------------------------|
|-------------------------------------------------------------------|
|-------------------------------------------------------------------|

|8~-7~-5~-3~-8~-7~-5~-3~-12~10~8~10~-15~13~12~10~-------------------|
|-------------------------------------------------------------------|
|-------------------------------------------------------------------|
|-------------------------------------------------------------------|
|-------------------------------------------------------------------|
|-------------------------------------------------------------------|


Guitar 2
|-------------------------------------------------------------------|
|-------------------------------------------------------------------|
|-------------------------------------------------------------------|
|2------------------------5-----------------------------------------|
|0-----------3------------3----------5------------------------------|
|------------1-----------------------3------------------------------|

|-------------------------------------------------------------------|
|-------------------------------------------------------------------|
|-------------------------------------------------------------------|
|2------------------------5-----------------------------------------|
|0-----------3------------3----------5------------------------------|
|------------1-----------------------3------------------------------|

Play Riff#1
Play Riff#2

Riff#8

Guitar 1                                                     2x
|-------------------------------------------------------------------|
|-------------------------------------------------------------------|
|-------------------------------------------------------------------|
|3"-2"-0"-2"-3"----------3"-2"-0"-2"-3"-7"-5"-3"-2"-----------------|
|---------------5"-8"-7"--------------------------------------------|
|-------------------------------------------------------------------|

Guitar 2                                                     2x
|-------------------------------------------------------------------|
|-------------------------------------------------------------------|
|-------------------------------------------------------------------|
|-------------------------------------------------------------------|
|2"-0"----0"-2"----------2"-0"----0"-2"-5"-3"-1"-0"-----------------|
|------4"-------3"-6"-5"-------4"-----------------------------------|

Play Riff#5
Play Riff#6(4X)

Riff#9

Both Guitars
|-------------------------------------------------------------------|
|-------------------------------------------------------------------|
|-------------------------------------------------------------------|
|---2-3-2----3-------2-----2-----2-3-2----3--7-8-7-5-7-5-2----------|
|5--0-1-0--5-1--4--5-0-5-4-0--5--0-1-0--5-1--5-6-5-3-5-3-0----------|
|3---------3----2--3---3-2----3---------3---------------------------|
    . . .  . .     . . . . .     . . .  . .        . . .

End with it:

|---|
|---|
|---|
|---|
|5/-|
|3/-|

DGCFAD because all of Cradle of Filth songs are played in DGCFAD except some songs from
the album "Damnation and a Day", where only "THe Promise of Fever", "Doberman Pharaoah"
and "The Smoke of Her Burning" are played in DGCFAD. All of the others are played in
CGCFAD. I know this information because one of the guitarists from Cradle of Filth told
me. Be sure it's right.
            
Tabs too difficult? Try these video lessons and learn fast.


comments powered by Disqus
↑ Back to top | Tablatures and chords are parodies/interpretations of the original songs. You may use it for private study, scholarship, research or language learning purposes only