» » »

Covenant, Planetarium Tabs (ver.2)

Artists:  A B C D E F G H I J K L M N O P Q R S T U V W X Y Z # 

Planetarium Tabs (ver.2)

Covenant Tabs
 Rating:
4/5 (5 votes)
Planetarium lessons Tabs too difficult? Try these video lessons and learn fast
                -------------------------------------------------------------------------------
                             Planetarium - Covenant
-------------------------------------------------------------------------------
The song isn´t that good tabbed.
but i would be pleased if you could send me some corrections!

Tuning:Standard

Guit1-Riff1:x1
e|---------------------------------------------------------------------------|
B|-555-4-444-3-111-0-x2--555-4-555-4-111-0-----------------------------------|
G|---------------------------------------------------------------------------|
D|---------------------------------------------------------------------------|
A|------------------------------------------3-3------------------------------|
E|------------------------------------------1-1---x4-------------------------|

Guit2-Riff1:x1
e|---------------------------------------------------------------------------|
B|---------------------------------------------------------------------------|
G|---------------------------------------------------------------------------|
D|---------------------------------------------------------------------------|
A|-7-7--??--3-3----77-77-77--3-3---------------------------------------------|
E|-5-5--??--1-1-x2-55-55-55--1-1--x4-----------------------------------------|

Riff2:Not sure if it´s right!very fast!x2
e|---------------------------------------------------------------------------|
B|-----------12p11p10----------13p12p11--------------12p11p10----------------|
G|---------------------------------------------------------------------------|
D|---------------------------------------------------------------------------|
A|-15-17-18-----------15-17-18-----------x6--15-17-18------------------------|
E|---------------------------------------------------------------------------|

e|-----------15p14p13--------------------------------------------------------|
B|---------------------------------------------------------------------------|
G|---------------------------------------------------------------------------|
D|---------------------------------------------------------------------------|
A|-15-17-18------------------------------------------------------------------|
E|---------------------------------------------------------------------------|

Chorus:x4
I don´t know guitar one it´s mixed to much!

e|---------------------------------------------------------------------------|
B|---------------------------------------------------------------------------|
G|---------------------------------------------------------------------------|
D|----55---------------------------------------------------------------------|
A|-77-33-77-55---------------------------------------------------------------|
E|-55----55-33---------------------------------------------------------------|

Riff1:x1

Riff3:x2
e|---------------------------------------------------------------------------|
B|-----5-4-3------3-2-1-----5-4-3--------------------------------------------|
G|---------------------------------------------------------------------------|
D|---------------------------------------------------------------------------|
A|----------------------------------33-6-7-----------------------------------|
E|-555--------555-------555---------11-4-5-----------------------------------|

Chorus:x4

Riff4:x2
e|---------------------------------------------------------------------------|
B|---------------------------------------------------------------------------|
G|---------------------------------------------------------------------------|
D|-----------------------------5-5-5-5-555-----------------------------------|
A|-7-7-7-7--777--7-7-7-7--777--3-3-3-3-333-6-6-6-6-666-----------------------|
E|-5-5-5-5--555--5-5-5-5--555--------------4-4-4-4-444-----------------------|

Riff5:x9
e|---------5--6--7--8--------------------------------------------------------|
B|--------5--6--7--8---------------------------------------------------------|
G|-------5--6--7--8----------------------------------------------------------|
D|---------------------------------------------------------------------------|
A|---------------------------------------------------------------------------|
E|-5-555---------------------------------------------------------------------|
Riff3:x2

Guit1-Clean Part:x4
e|---------------------------------------------------------------------------|
B|--5-5--5---6------55--6----------------------------------------------------|
G|-5-5--5-5-5-6-x3-5---5-6---------------------------------------------------|
D|---------------------------------------------------------------------------|
A|---------------------------------------------------------------------------|
E|---------------------------------------------------------------------------|

Guit2 or Bass-Clean Part and it´s second guitar for Riff6:don´t kno.
e|---------------------------------------------------------------------------|
B|---------------------------------------------------------------------------|
G|---------------------------------------------------------------------------|
D|---------------------------------------------------------------------------|
A|-15-19-18-20-15-19-18-17-15-19-18-20-15--17-14-----------------------------|
E|---------------------------------------------------------------------------|

Riff6:Don´t know how often to play.Don´t know guitar one.

Riff7:x4
e|------------------------|
B|-555-4-555-4-111-0------|
G|------------------------|
D|------------------------|
A|-------------------3-3--|
E|-------------------1-1--|

End

| /  slide up
| \  slide down
| h  hammer-on
| p  pull-off
| ~  vibrato
| +  harmonic
| x  Mute note
===============================================================================
            
Submit corrections

comments powered by Disqus
↑ Back to top | Covenant Tabs for Planetarium. Lyrics for acoustic guitar and electric guitar. Tablatures and chords are parodies/interpretations of the original songs. You may use it for private study, scholarship, research or language learning purposes only